Bad Weather Blues
by Wishbone Ash
from the CD No Smoke Without Fire
Transcribed by Rob Watson [email protected]
Intro
repeat this bar * 3
Gtr 1
E|--------------------------|-----------------------------|
B|--------------------------|-----------------------------|
G|2-5-5--2-5-5--2-5-5--2-5-5|2-5-5--2-5-5--2-0------------|
D|--------------------------|------------------2--0-------|
A|--------------------------|-----------------------3b4---|
E|--------------------------|-----------------------------|
|Gtr 2 | |
E|--------------------------|-----------------------------|
B|--5-5----5-5----5-5----5-5|--5-5----5-5-----------------|
G|5------5------5------5----|5------5------2-0------------|
D|--------------------------|------------------2--0-------|
A|--------------------------|-----------------------3b4---|
E|--------------------------|-----------------------------|
A D
E|----|---------------------|-------|----------|-------8-10-10b11r10p8----8s9---|
B|----|--(8pb10)r8-5--------|----5--|5s7---5-8-|8-9-10-----------------10-----10|
G|----|--------------8-7-5--|5s6----|----6-----|--------------------------------|
D|----|--------------------7|-------|----------|--------------------------------|
A|0---|---------------------|-------|----------|--------------------------------|
E|----|---------------------|-------|----------|--------------------------------|
A E
E|---------|------------------12|---12b14-12-------------|------------5|
B|----10---|12b13r12-10-12s14---|10----------10-12b13----|10---5-8b10--|
G|s11----11|--------------------|---------------------11-|-------------|
D|---------|--------------------|------------------------|-------------|
A|---------|--------------------|------------------------|-------------|
E|---------|--------------------|------------------------|-------------|
D A hold bend
Gtr 1
E|-------------|5----------------------|--------------|--------------|
B|8-7-5---5----|--8-7--5------------7b8|--T12p(8)r7-5-|----5---------|
G|------7---5--|---------7-6--5--------|--------------|6-------------|
D|------------7|----------------7-5----|--------------|--7-----------|
A|-------------|-----------------------|--------------|--------------|
E|-------------|-----------------------|--------------|--------------|
|Gtr 2 | | | |
E|------------5|8-7-5------------------|--------------|--------------|
B|-------------|-------8-7-5------5----|--------------|--------------|
G|-------------|--------------8-7---7b9|--T11p(9)r7-5-|--------------|
D|-------------|-----------------------|--------------|--------------|
A|-------------|-----------------------|--------------|--------------|
E|-------------|-----------------------|--------------|--------------|
Well I've been
E|--5--------|-------------|-----------------|
B|-5--8-5-7-5|7-5----------|-----------------|
G|6----------|7-5----------|-----------------|
D|rake-------|----7--------|-----------------|
A|-----------|-------------|-----------------|
E|-----------|-------------|-----------------|
A
Well, I been away,I said I been away for so long.
E|-----5-------|-----------------------------|
B|-----5-8-5---|-----------------------------|
G|-----------7b|9r7p5---5s6------------------|
D|-------------|------7-----7----------------|
A|-------------|-----------------------------|
E|-------------|-----------------------------|
Tell me, have you,Have you done me wrong?
D
Can I tell by the look that's in your eyes,
A
Have you kept your loving locked away inside?
E
Can you shake the dust from off my shoes -
D
Take away these bad weather
A
blues?
E|----------|-----8h9-10-8h9-----|-------------------|---------|
B|----------|--10------------10--|8--------------5-5-|-------10|
G|----------|-------------------9|--s7p5---5s6-------|---------|
D|----------|--------------------|-------7-----7-----|---------|
A|----------|--------------------|-------------------|---------|
E|----------|--------------------|-------------------|---------|
D A
Gtr L
E|14b15-|14b15-14-15-12-----|------------12-|------12------------|
B|------|---------------13--|12b13-12b13----|12b14----12b14-12-10|
G|------|-------------------|---------------|--------------------|
D|------|-------------------|---------------|--------------------|
A|------|-------------------|---------------|--------------------|
E|------|-------------------|---------------|--------------------|
|Gtr R | | | |
E|10b12-|10b12-10-12-8------|------------12-|--------------------|
B|------|--------------10---|---------------|------13------------|
G|------|----------------9-9|12b14-12b14----|12b14----12b14-12-9-|
D|------|-------------------|---------------|--------------------|
A|------|-------------------|---------------|--------------------|
E|------|-------------------|---------------|--------------------|
D A
E|------10--------------14b|15-14-15-12------|-----|------------------------|
B|12b13----12b13-10--------|------------13b14|12---|----------------13----13|
G|-------------------------|-----------------|-----|------------s14----14---|
D|-------------------------|-----------------|-----|------------------------|
A|-------------------------|-----------------|-----|------------------------|
E|-------------------------|-----------------|-----|------------------------|
| | | | |
E|----------------------10b|12-10-12-8-------|----5|----5-------------------|
B|------12-----------------|------------10---|8b9--|------------------------|
G|12b14----12b14-9---------|----------------9|-----|6h7---6h7-6-------------|
D|-------------------------|-----------------|-----|------------------------|
A|-------------------------|-----------------|-----|------------------------|
E|-------------------------|-----------------|-----|------------------------|
E D
E|-----------------------|------10-------10---------------|
B|15b17-15b17-15-13------|12b13----12b13----12b13-10------|
G|------------------14---|---------------------------11---|
D|-----------------------|--------------------------------|
A|-----------------------|--------------------------------|
E|-----------------------|--------------------------------|
| | |
E|-----------------------|--------------------------------|
B|10b12-10b12-10-8-------|------10-------10---------------|
G|------------------9----|10b11----10b11----10b11-9--7----|
D|-----------------------|--------------------------------|
A|-----------------------|--------------------------------|
E|-----------------------|--------------------------------|
A E A
Solo
E|------------------------|-----------------|------------|
B|10-8-----7------6-------|5----------------|-----------5|
G|------------------------|--5sb------------|------------|
D|------------------------|------7----------|------------|
A|------------------------|-----------------|------------|
E|------------------------|-----------------|------------|
| | | |
E|------------------------|-----------------|------------|
B|-----8-----7-----6------|-----------------|------------|
G|6--9---9-8---8-7---7----|5h6p5h65---------|------------|
D|------------------------|----------7------|------------|
A|------------------------|-----------------|------------|
E|------------------------|-----------------|------------|
D
E|5------------|----------------|--5----------------|---------|
B|5-8-5--------|--------5-5--5-6|7---8-7-5----------|---------|
G|------8s7-5--|5s6-5-----------|----------7-5sb----|----7--7s|
D|------------7|------7---------|----------------7-7|5-4------|
A|-------------|----------------|-------------------|---------|
E|-------------|----------------|-------------------|---------|
A E
E|--------------------------|5----7h|8-5--7h8-7-5-5sd---|--5---5-7b8r7p5---5----|
B|--8---8---8---------------|-------|-----------------5s|7---7-----------7---8b9|
G|9---9---9---9s5----5h6p5--|-------|-------------------|-----------------------|
D|----------------7--------7|-------|-------------------|-----------------------|
A|--------------------------|-------|-------------------|-----------------------|
E|--------------------------|-------|-------------------|-----------------------|
D A A
E|5-5-------5-----|5-5------5------|------------12----------|-------|
B|----8b10----8b10|----8b10--------|10-10-12b14----r12p10---|10-----|
G|----------------|-----------12b14|----------------------11|------9|
D|----------------|----------------|------------------------|-------|
A|----------------|----------------|------------------------|-------|
E|----------------|----------------|------------------------|-------|
E D A I done time
E|----------------|-------------------------------|------|
B|12b14-12-10-----|-------------------------------|------|
G|------------9-12|-------------------------------|------|
D|----------------|13p12p10----s11----12-10h11-10h|11----|
A|----------------|---------12-----12-------------|------|
E|----------------|-------------------------------|------|




Ваше мнение



Капча

Рекомендуем