From: [email protected] (Chris Taylor)
JUNIORS FARM - Wings
====================
Intro
(Bass in brackets)
|----------------------------------------------------------|
|-----------------6-8--------------------------------------|
|-----7b9r7-5-7-7------7bbb9-7r9---------------------------|
|--5-------------------------------------------------------|
|---------------------------------------------(5)----------|
|-(3)-----------------------------(1)-(1)-(3)-----(3)------|
|--------------------------------------13--13--15--17--15-----|
|-----------------6-8--13-13b15r13p12-------------------------|
|-----7b9r7-5-7-7---------------------------------------------|
|--5----------------------------------------------------------|
|--------------------------------------------------(5)--------|
|-(3)----------------------------------(1)-(1)-(3)-----(3)----|
Solo ("Take me down Jimmy...")
|------------------------10------------------------------------------------|
|-8~-10-8-10b12^^^----10b12-12r10-8---------8-10---------------------------|
|-------------------------------------9-7-9------9-9b11r9--7---7-----------|
|------------------------------------------------------------9---9-7-5~\.--|
|--------------------------------------------------------------------------|
|--------------------------------------------------------------------------|
|------15-|------15-15-|-17b19~~-|
|-15h17---|-15h17------|---------|
|---------|:----------:|---------|
|---------|------------|---------|
|---------|------------|---------|
|---------|------------|---------|
( 5 x )
|--17_17----------------------------------------------|
|--17b19~~--19r17-15-\12------------------------------|
|------------------------14-12----14b16r14-12----12~~\|
|------------------------------14-------------14------|
|-----------------------------------------------------|
|-----------------------------------------------------|
Chords
------
Verse and Chorus:
Basically alternate G and F, with some lines ending on F to Em
e.g One way of playing the verse
G (C) G F Em
|--------------------|--------------|
|--------------------|--------------|
|--4------5------4---|--2------0----| fill (see below)
|--5------5------5---|--3------2----|
|--5------3--0---5---|--3------2----|
|--3-------------3---|--1------0----|
.
G (C) G
You should've seen me with the poker man
I had a honey and I bet a grand
F Em
Just in the nick of time I looked at his hand
Ending:
Em D Em D C Bm Am Em D Em D C Bm Am C D G
Em X7998X
D X5777X
... and so on down the neck
(The minor chords sound appropriate to me - but if in doubt just play fifths)
Song finishes up on:
G
|--10___10----|
|--10bbb12~~--|
|-------------|
|-------------|
|-------------|
|-------------|
Verse fills
-----------
These should have a nice dirty rock n roll sound
so the right distortion will help.
Licks in chronological order:
|-------------------------|-----------------------|
|------3-3-3--------------|-----------------------|
|--2/4-------4\2-0-0----0-|--------0-4p2p0-4p2p0--|
|--------------------2----|----0-2----------------|
|-------------------------|--2--------------------|
|-------------------------|-----------------------|
X . . .
|------------------------|----------------------|
|------------------------|--5-3-----------------|
|----------0-2b4r2-0-----|------4-2-2b4^^^^^p0--|
|------0h2-----------2---|----------------------|
|--0h2-------------------|----------------------|
|------------------------|----------------------|
. .
|-----------------------|-----10----10----10----------------------------|
|------3-5-3------------|--10b12-10b12-10b12-10b12-10b12r10-10--10~~~~--|
|--2h4-------4-2-4p2p0--|-----------------------------------------------|
|-----------------------|-----------------------------------------------|
|-----------------------|-----------------------------------------------|
|-----------------------|-----------------------------------------------|
. . .
(I think these are pretty accurate but I may have been tricked in places)
Notation
--------
b,r,p,h = bend,release,pull-off,hammer-on
~ vibrato
^ severe vibrato
/\ slides
bbb slow bend
_ tie (hold note)
. staccato
X mute




Ваше мнение



Капча