Time of the Preacher
WIllie Nelson

Intro
-------------
-------------
-7-----5-----
---7-3---5-0-

Chorus 1
---------------------------------------------------
------------------7-6-4---/9----9------------------
---------7---7-7--------7-----7---0---9------7---7-
-0-2-3-5---5----5------------7------7---07-7---7---

Chorus 2
------------------------------------------------
-----------67-7-6-4---/9-------------------2----
---------7----------7----7---------------2---2--
-0-2-3-5------------------0-5-6-7-5-3-2--------

--------------------------------------------------------------
-012-2-4-6-7---7-7-6-4---/9--------------------2-2-----2---2--
-------------7---------7-----7---------------2-----2-4---2----
----------------------------7--0-5-6-7-5-3-2------------------




Ваше мнение



Капча