Time of the Preacher
WIllie Nelson

Intro
----------------
----------------
----------------
-5-0-5-0--------

Verse
---------------------------
---------------------------
---------4-5---------------
-5-5-5-7-----5-5-0---------

Fig. 1
-----------------------------------
-----------------------------------
-----------------4-5---------------
-0-2-4---5-5-5-7-----5-0-5--5-4-2--

Fig. 2 N.H.
----------------------
---------------4------
------5-4--------8-7--
-0-0------7-5---------

Fig. 1
Fig. 2

-----------------------------------
-----------------------------------
-----------------4-5---------------
-0-2-4---5-5-5-7-----5-0-5--2-4----

Fig. 3
-----------------------
-----------------------
----------4-5----------
--5-5-5-7-----5-5-4-2--

---------------------------
---------------------------
---------4-5---------------
-5-5-5-7-----5-0-5--5-4-2--

Fig. 2
Fig. 1
Fig. 2

----------------------------------
----------------------------------
-----------------4-5--------------
-0-2-4---5-5-5-7-----5-0-5-0-5----

Fig. 3

------------------------------------------------------
------------7--7----------------7-6-4-----------------
-----------7----7-----4-5-------------7-----4-5-4-----
-0-0-2-4-5--------5-7-----5-0-5---------0-57------7-5-

------------------------------------------------------
----4--------------------------------------------------
-57---8-7------------------4-5---4----------------------------
----------0-2-4-5-45--45-7-----5---5-----------------------------




Ваше мнение



Капча