My Generation - The Who
Guitar

E||----------------------------------|----------------------------------|
B||----------------------------------|----------------------------------|
G||------0---0---0---0---0---0---0---|------0---0---0---0---0---0---0---|
D||--5---5---5---5---3---3---3---3---|--5---5---5---5---3---3---3---3---|
A||--5---5---5---5---3---3---3---3---|--5---5---5---5---3---3---3---3---|
E||--3---3---3---3---1---1---1---1---|--3---3---3---3---1---1---1---1---|

--------------------------|----------------------------------|
--------------------------|----------------------------------|
--------------------------|------0---0---0---0---0---0---0---|
--------------------------|--5---5---5---5---3---3---3---3---|
--------------------------|--5---5---5---5---3---3---3---3---|
--------------------------|--3---3---3---3---1---1---1---1---|

--------------------------|----------------------------------|
--------------------------|----------------------------------|
--------------------------|------0---0---0---0---0---0---0---|
--------------------------|--5---5---5---5---3---3---3---3---|
--------------------------|--5---5---5---5---3---3---3---3---|
--------------------------|--3---3---3---3---1---1---1---1---|

--------------------------|----------------------------------|
--------------------------|----------------------------------|
--------------------------|------0---0---0---0---0---0---0---|
--------------------------|--5---5---5---5---3---3---3---3---|
--------------------------|--5---5---5---5---3---3---3---3---|
--------------------------|--3---3---3---3---1---1---1---1---|

--------------------------|----------------------------------|
--------------------------|----------------------------------|
--------------------------|------0---0---0---0---0---0---0---|
--------------------------|--5---5---5---5---3---3---3---3---|
--------------------------|--5---5---5---5---3---3---3---3---|
--------------------------|--3---3---3---3---1---1---1---1---|

--3-----------3----3---3---3---|----------------------------------|
--3-----------3----3---3---3---|------0---0-------3---3---3-------|
--4-----------5----5---5---5---|------0---0---5---5---5---5---5---|
--5-----------5----5---5---5---|--5---5---5---3---3---3---3---3---|
--5-----------5----5---5---5---|--5---5---5---5---3---3---3---5---|
--3-----------3----3---3---3---|--3---3---3---3---1---1---1---3---|

---------------------------|----------------------------------|
---------------------------|----------------------------------|
--0------------------------|------0---0---0---0---0---0---0---|
--5------------------------|--5---5---5---5---3---3---3---3---|
--5------------------------|--5---5---5---5---3---3---3---3---|
--3------------------------|--3---3---3---3---1---1---1---1---|

---------------------------|----------------------------------|
---------------------------|----------------------------------|
---------------------------|------0---0---0---0---0---0---0---|
--5------------------------|--5---5---5---5---3---3---3---3---|
--5------------------------|--5---5---5---5---3---3---3---3---|
--3------------------------|--3---3---3---3---1---1---1---1---|

---------------------------|----------------------------------|
---------------------------|----------------------------------|
--0------------------------|------0---0---0---0---0---0---0---|
--5------------------------|--5---5---5---5---3---3---3---3---|
--5------------------------|--5---5---5---5---3---3---3---3---|
--3------------------------|--3---3---3---3---1---1---1---1---|

---------------------------|----------------------------------|
---------------------------|----------------------------------|
--0------------------------|------0---0---0---0---0---0---0---|
--5------------------------|--5---5---5---5---3---3---3---3---|
--5------------------------|--5---5---5---5---3---3---3---3---|
--3------------------------|--3---3---3---3---1---1---1---1---|

--3-----------3----3---3---3---|----------------------------------|
--3-----------3----3---3---3---|------0---0-------3---3---3-------|
--4-----------5----5---5---5---|------0---0---5---5---5---5---5---|
--5-----------5----5---5---5---|--5---5---5---3---3---3---3---3---|
--5-----------5----5---5---5---|--5---5---5---5---3---3---3---5---|
--3-----------3----3---3---3---|--3---3---3---3---1---1---1---3---|

---------------------------|----------------------------------|
---------------------------|----------------------------------|
--0------------------------|------0---0---0---0---0---0---0---|
--5------------------------|--5---5---5---5---3---3---3---3---|
--5------------------------|--5---5---5---5---3---3---3---3---|
--3------------------------|--3---3---3---3---1---1---1---1---|

---------------------------|----------------------------------|
---------------------------|--0---0-----------3---3---3-------|
--0------------------------|--0---0-----5-----5---5---5---5---|
--5------------------------|--5---5-----3-----3---3---3---3---|
--5------------------------|--5---5-----5-----5---5---5---5---|
--3------------------------|--3---3-----3-----3---3---3---3---|

---------------------------|----------------------------------|
---------------------------|------5-6-5---3-------5-6-5---3---|
--0------------------------|--0---5-7-5---3---0---5-7-5---3---|
--5------------------------|----------------------------------|
--5------------------------|----------------------------------|
--3------------------------|----------------------------------|

---------------------------|-----3-7-----------------------------|
--3------------------------|-------------------3---3---1---------|
--0------------------------|-------------7-5-3------------3-0----|
---------------------------|-----------------------------------3-|
---------------------------|-------------------------------------|
---------------------------|-------------------------------------|

--------------------------------------|------------------------------------|
------0-------------3---3---3--3------|--0---0-----------3---3---3--3------|
--0---0---0-0-0-5---5---5---5--5-5--5-|--0---0-----5-5---5---5---5--5-5--5-|
------5---------3---3---3---3--3-3--3-|--0---0-----3-3---3---3---3--3-3--3-|
------5---------5---5---5---5--5-5--5-|------------5-5---5---5---5--5-5--5-|
------3---------3---3---3---3--3-3--3-|--3---3-----3-3---3---3---3--3-3--3-|

--5------------------------|----------------------------------|
--5------------------------|------------------0---0---0---0---|
--6------------------------|--6---6---6---6---0---0---0---0---|
--7------------------------|--7---7---7---7---5---5---5---5---|
--7------------------------|--7---7---7---7---5---5---5---5---|
--5------------------------|--5---5---5---5---3---3---3---3---|

---------------------------|----------------------------------|
--2------------------------|--2---2---2---2---0---0---0---0---|
--2------------------------|--2---2---2---2---0---0---0---0---|
--2------------------------|--2---2---2---2---5---5---5---5---|
--0------------------------|--0---0---0---0---5---5---5---5---|
---------------------------|------------------3---3---3---3---|

---------------------------|----------------------------------|
--2------------------------|--2---2---2---2---0---0---0---0---|
--2------------------------|--2---2---2---2---0---0---0---0---|
--2------------------------|--2---2---2---2---5---5---5---5---|
--0------------------------|--0---0---0---0---5---5---5---5---|
---------------------------|------------------3---3---3---3---|

--------------------------|----------------------------------|
--------------------------|--2---2---2---2---0---0---0---0---|
--------------------------|--2---2---2---2---0---0---0---0---|
--------------------------|--2---2---2---2---5---5---5---5---|
--------------------------|--0---0---0---0---5---5---5---5---|
--------------------------|------------------3---3---3---3---|

--5---5-------------------------|-----5------5-------------------|
--5---5-------------------------|-----5------5-------------------|
--6---6------7------7---7---7---|-----6------6---7--------7-7--7-|
--7---7------5------5---5---5---|-----7------7---5--------5-5--5-|
--7---7------7------7---7---7---|-----7------7---7--------7-7--7-|
--5---5------5------5---5---5---|-----5------5---5--------5-5--5-|

--5---5---5---5--5-5----------------|--5---5---5--5-5--5----------------|
--5---5---5---5--5-5----------------|--5---5---5--5-5--5----------------|
--6---6---6---6--6-6-7-7-----7-7--7-|--6---6---6--6-6--6-7---7---7------|
--7---7---7---7--7-7-5-5-----5-5--5-|--7---7---7--7-7--7-5---5---5------|
--7---7---7---7--7-7-7-7-----7-7--7-|--7---7---7--7-7--7-7---7---7------|
--5---5---5---5--5-5-5-5-----5-5--5-|--5---5---5--5-5--5-5---5---5------|

--6---6-------------------------|------6------6-------------------|
--6---6-------------------------|------6------6-------------------|
--7---7------8------8---8---8---|--8---7------7---8--------8-8--8-|
--8---8------6------6---6---6---|--6---8------8---6--------6-6--6-|
--8---8------8------8---8---8---|--8---8------8---8--------8-8--8-|
--6---6------6------6---6---6---|--6---6------6---6--------6-6--6-|

--6------------------------|--6---6-------------------------|
--6------------------------|--6---6----------6---6----------|
--7------------------------|--7---7------8---8---8------8---|
--8------------------------|--8---8------6---6---6------6---|
--8------------------------|--8---8------8---8---8------8---|
--6------------------------|--6---6------6---6---6------6---|

--6------------------------|--6---6-------------------------|
--6------------------------|--6---6----------6---6----------|
--7------------------------|--7---7------8---8---8------8---|
--8------------------------|--8---8------6---6---6------6---|
--8------------------------|--8---8------8---8---8------8---|
--6------------------------|--6---6------6---6---6------6---|

--6------------------------|--6---6-------------------------|
--6------------------------|--6---6----------6---6----------|
--7------------------------|--7---7------8---8---8------8---|
--8------------------------|--8---8------6---6---6------6---|
--8------------------------|--8---8------8---8---8------8---|
--6------------------------|--6---6------6---6---6------6---|

--6------------------------|--6---6-------------------------|
--6------------------------|--6---6----------6---6----------|
--7------------------------|--7---7------8---8---8------8---|
--8------------------------|--8---8------6---6---6------6---|
--8------------------------|--8---8------8---8---8------8---|
--6------------------------|--6---6------6---6---6------6---|

--6---6---6---6--6-6----------------|--6---6---6---6--6-6----------------|
--6---6---6---6--6-6----------------|--6---6---6---6--6-6----------------|
--7---7---7---7--7-7-8-8---8---8--8-|--7---7---7---7--7-7-8-8---8---8--8-|
--8---8---8---8--8-8-6-6---6---6--6-|--8---8---8---8--8-8-6-6---6---6--6-|
--8---8---8---8--8-8-8-8---8---8--8-|--8---8---8---8--8-8-8-8---8---8--8-|
--6---6---6---6--6-6-6-6---6---6--6-|--6---6---6---6--6-6-6-6---6---6--6-|

--6---6---6---6--6-6----------------|--6---6---6---6--6-6----------------|
--6---6---6---6--6-6----------------|--6---6---6---6--6-6----------------|
--7---7---7---7--7-7-8-8---8---8--8-|--7---7---7---7--7-7-8-8---8---8--8-|
--8---8---8---8--8-8-6-6---6---6--6-|--8---8---8---8--8-8-6-6---6---6--6-|
--8---8---8---8--8-8-8-8---8---8--8-|--8---8---8---8--8-8-8-8---8---8--8-|
--6---6---6---6--6-6-6-6---6---6--6-|--6---6---6---6--6-6-6-6---6---6--6-|

------------------------------|-----------------------------|
------------------------------|-----------------------------|
------------------------------|---0-------------------------|
---1-------------0------------|---2-------------------------|
---3-------------4------------|----------------0------------|
---7-------------1------------|----------------4------------|

--------------------------------|-----------------------------|
--------------------------------|-----------------------------|
----0---------------------------|--0--------------------------|
--2----------------3------------|----2-----------0------------|
--3--------------1-5------------|-----------------------------|
--------------------------------|----3------------------------|

----------------------------|----------------------------|
----------------------------|----------------------------|
----------------------------|--0-------------------------|
--1-------------------------|---------------0------------|
--3-------------------------|--2-------------------------|
--7------------1------------|----------------------------|

---------------------------|-------------------------------|
---------------------------|-------------------------------|
---------------------------|--0----------------------------|
--2------------------------|-----------------0-------------|
--1-----------0------------|--2-3------------8-------------|
--3-----------4------------|-----------------6-----------8-|

------------------------------|-------------------------------|
------------------------------|-------------------------------|
------------------------------|-----------------------------0-|
--0-----------0-3-----------2-|----------------3--------------|
--7-------------1-----------3-|--------------0--------------2-|
----------------------------6-|--------------6----------------|

---------------------------|------------------------------|
---------------------------|------------------------------|
---------------------------|------------------------------|
--------------0------------|---2------------0-3-----------|
--------------8------------|---1--------------1-----------|
--------------6------------|---3--------------------------|

-----------------------------|---------------------------|
-----------------------------|---------------------------|
--0--------------------------|--0------------------------|
--2------------0-------------|--2------------------------|
--3------------3-1-----------|--3-----------0------------|
-----------------------------|--------------4------------|

------------------------------|----------------------------|
------------------------------|----------------------------|
----0-------------------------|--0-------------------------|
-----------------0----------2-|---------------0------------|
--3--------------1------------|---------------3------------|
--7--------------4------------|--3-------------------------|

-----------------------------|-----------------------------|
-----------------------------|-----------------------------|
-----------------------------|---0-------------------------|
--2------------3-0-----------|---2-------------------------|
--1--------------------------|---3------------3------------|
--3------------1-------------|----------------6------------|

-----------------------------|------||
-----------------------------|------||
-----------------------------|------||
--0--------------------------|------||
--7-3------------------------|------||
-----------------------------|------||




Ваше мнение



Капча