e: Mon, 30 Mar 1998 15:37:28 EST
From: VanLoydUsh
Subject: Tab: Magic Bus by THE WHO
Magic Bus by ThE Who
Greatest Hits
Tuning: Drop 1 step
( low to high: D, G, C, F, A ,D )
Intro:
A A A A A G G G G D
-------------------------------------------------3--3---3--3----2-----
-------------------------------------------------3--3---3--3----3-----
---2-----2----2----------2---------------2----------------------2-----
---2-----2----2----------2---------------2----------------------------
---0-----0----0---3^-----0---------3^----0-------2--2---2--2----------
-------------------------------------------------3--3---3--3----------
Main Riff
( Play with Rythem )
A AAA G G D D A AAA G G G D D
( Solo bit )
------------------------------------------------8---------------------
-----------------------------------------------10--10--10--10---------
---X\\\\\\\\\\\\\----------------------------------------------7--7---
---X\\\\\\\\\\\\\\----7--5-------------------7------------------------
-----------------------------7--6--5--3--0--------------------------0-
----------------------------------------------------------------------
pick scrap
After "You can't have it ! " ........
{3 times} {3 times} {3 Times}
|------------------------------|------0--0-----2--2-----3--3-----2--2-|
|------------------------------|------3--3-----3--3-----3--3-----3--3-|
|o-----2---2---2---------2---o-|-o----2--2-----2--2-----2--2-----2--2o|
|o-----2---2---2---------2---o-|-o-----------------------------------o|
|------0---0---0---3^----0-----|--------------------------------------|
|------------------------------|--------------------------------------|
Tabbed by [email protected] ( Brian N. )
Comments and questions welcomed




Ваше мнение



Капча