Song: Magic Bus
Artist: The Who
Album: Magic Bus
As tabbed by Joe Muggah
Guitar 1 is Capoed on the 3rd fret
Guitar 2 is in standard tuning
= pick slide down
Intro
g------------------------------3-3-3--2-2-2----------------
D------------------------------3-3-3--3-3-3----------------
Bb-----------------------------0-0-0--2-2-2----------------
F--2--2--2------2-------2-2-2--0-0-0--0-0-0----------------
C--2--2--2------2-------2-2-2--2-2-2-----------------------
G--0--0--0--3^--0---3^--0-0-0--3-3-3-----------------------
Riff 1
g-----0------0--3-3--2-2-----0------0--3-3--2-2------------
D-----0------0--3-3--3-3-----0------0--3-3--3-3------------
Bb----1------1--0-0--2-2-----1------1--0-0--2-2------------
F-----2--2-2-2--0-0--0-0-----2--2-2-2--0-0--0-0------------
C--2--2--2-2-2--2-2-------2--2--2-2-2--2-2-------2-2-2-----
G--0--0--0-0-0--3-3-------0--0--0-0-0--3-3-------0-0-0-3^--
(continued)
g---------------0-0--0-0--3-3-2--3--2--0-0-0-0-0--3-3--2-2-
D---------------0-0--0-0--3-3-3--3--3--0-0-0-0-0--3-3--3-3-
Bb--------------1-1--1-1--2-2-2--2--2--1-1-1-1-1--0-0--2-2-
F---------------2-2--2-2--0-0-0--0--0--2-2-2-2-2--0-0--0-0-
C--2----2----2--2-2--2-2---------------2-2-2-2-2--2-2------
G--0-3^-0-3^-0--0-0--0-0---------------0-0-0-0-0--3-3------
Verse
g------0--0-0--3-3-2--3--2-----0--0-0--3-3--2-2------------
D------0--0-0--3-3-3--3--3-----0--0-0--3-3--3-3------------
Bb-----1--1-1--2-2-2--2--2-----1--1-1--0-0--2-2------------
F------2--2-2--0-0-0--0--0-----2--2-2--0-0--0-0------------
C---2--2--2-2---------------2--2--2-2--2-2-----------------
G---0--0--0-0---------------0--0--0-0--3-3-----------------
Solo
g-------------------------------------0-0-3--0-0-0---------
D----------------------------------------------------------
Bb------------------------------------------------2-2----
F--2-------2-----2p0--------------------------------2--2-
C--2---------2----------0-0-0-------------------------0--2-
G--0---------0-----------------3--0----------------------0-
Riff 2
g--0-0-0--0-0--3-3-2--3-3-2--0-0-0--0-0--3-3-2--3-3-2--0---
D--0-0-0--0-0--3-3-3--3-3-3--0-0-0--0-0--3-3-3--3-3-3--0---
Bb-1-1-1--1-1--2-2-2--2-2-2--1-1-1--1-1--2-2-2--2-2-2--1---
F--2-2-2--2-2--0-0-0--0-0-0--2-2-2--2-2--0-0-0--0-0-0--2---
C--2-2-2--2-2----------------2-2-2--2-2----------------2---
G--0-0-0--0-0----------------0-0-0--0-0----------------0---
Bridge
g----------------------------------------------------------
D----------------------------------------------------------
Bb---------------------------------------------------------
F--2--2--2--2----2-----2--2--2--2----2-----2--2--2--2----2-
C--2--2--2--2----2-----2--2--2--2----2-----2--2--2--2----2-
G--0--0--0--0-3^-0-----0--0--0--0-3^-0-----0--0--0--0-3^-0-
(continued)
g----------------------------------------------------------
D---0-0--2-2--3-3--2-2---0-0--2-2--3-3--2-2----------------
Bb--1-1--1-1--1-1--1-1---1-1--1-1--1-1--1-1----------------
F---2-2--2-2--2-2--2-2---2-2--2-2--2-2--2-2----------------
C----------------------------------------------------------
G----------------------------------------------------------
Riff 3 (with increased distortion)
e----------------------------------------------------------
B----------------------------------------------------------
G----------------------------------------------------------
D------------------------------3-5----3-5----3-5----3-5----
A------------------------------3-5----3-5----3-5----3-5----
E--1-3----1-3----1-3----1-3----1-3----1-3----1-3----1-3----
Outro
G----------------------------------------------------------
D----------------------------------------------------------
Bb---------------------------------------------------------
F---2-2--2--2----2-------2-----2-------------2-------------
C---2-2--2--2----2-------2-----2-------------2-------------
G---0-0--0--0-3^-0----3^-0--3^-0---3^-3^-3^--0-------------
Intro
Riff 1
Verse
Solo
Verse
Riff 2
Bridge
Riff 2, Riff 3
Verse
Verse, Outro
===========
Author/Artist: The Who
Title: Magic Bus
Transcribed by: Saverain
Email: [email protected]
This is what it sounds like to me and if you don't like it E-mail me
you'll have to find the lyrics somewhere else sorry. I are not to good words
v strum down
^ strum up b bend m mute T use thumb
TAB CONTEST Tricky song
10/12/02
standard tuning
Capo 4th fret
intro
-|-------------------------------------0--0--0-0--0-3-3-3--0--0--0-0--0-3-3-3-
-|-------------------------------3--3--x--x--x-x--0-3-3-3--0--0--x-x--0-3-3-3-
-|-------------------------------0--0--4--4--4-4--x-0-0-0--x--x--4-4--x-0-0-0-
-|-----------------------2-2-2-2-0--0--2--2--2-2--2-x-x-x--2--2--2-2--2-x-x-x-
-|-2--2--2--2------------2-2-2-2-x--x--2--2--2-2--2-5-5-5--2--2--2-2--2-5-5-5-
-|-0--0--0--0-3--0---3b4-0-0-0-0-5--5--0--0-----------------------------------
v v v v ^ vm v v ^ v ^ v vm ^ vm v ^ v v ^ vm ^ vm
--0--0----------------------------------------------------0-0--0-3-3-3--0--0--
--0--0---------------------------------------3-0-0--0-----x-x--0-3-3-3--0--0--
--x--x---------------------------------------0-0-0--x-----4-4--x-0-0-0--x--x--
--2--2--2-2--2-2----------------------2-2--0-0-x-x--2--2--2-2--2-x-x-x--2--2--
--2--2--2-2--2-2----------------------2-2--x-x-5-5--2--2--2-2--2-5-5-5--2--2--
--------0-0--0-0-3-3-3-3b4-3b4-3b4-0--0-0--5-5-3-3--0--0----------------------
m v ^ ^ v ^ v ^ v v v ^ v ^m v ^m^Tv ^ vm m
---|-------------------|-0-0--0--------0--0-----------------------------|-----
---|-------------------|-x-x--0-3-3-3--0--0-----0----0---3-3-3-3-----0--|-----
---|-------------------|-4-4--x-0-0-0--x--x-----x----x-x-0-0-0-0-----x--|-----
---|-------------------|-2-2--2-x-x-x--2--2-----2--2-2-x-x-x-x-x--2--2--|-----
---|-------------------|-2-2--2-5-5-5--2--2--2--2--2-2-x-5-5-5-5--2--2--|-----
---|-------------------|---------------------0--0--0-0-x-3-3-3-3--0--0--|-----
m verse riff variations of this> m m v v v ^ vT^ v ^ vm ^ vm
-----|----------------------3----0-0---------------------------------------3--
-----|--------------------5----5-------------------------------------------3--
-----|-------------------------------2--2-------------------------x--x-x-x-0--
-----|------2p0-------------------------2-------------------------2--2-2-2-0--
-----|-2--------------------------------x--2-----------------2--2-2--2-2-2-x--
-----|-0-------5p3-3b-0-----------------5--0-----------------0--0-0--0-0-0-5--
solo> v v v v v v ^ v ^ v ^ v v v ^ v ^ v ^ v
--3--0-0-0-0-|----------------------------------------------------------------
--3--0-0-0-0-|----------------------------------------------------------------
--0--x-x-x-x-|----------------------------------------------------------------
--0--2-2-2-2-|----------------------------------------------------------------
--x--2-2-2-2-|----------------------------------------------------------------
--5----------|----------------------------------------------------------------
vm v ^ v ^ verse>>>>>>>>>>>>>>>>>>>>>>>>>>>>>>>>>>>>>>>>>>>>>>>>>
--|----------------------------|----|---|-------------------|----|------------
--|----0----0---3-3-3-3-----0--|----|-3-|-------------------|----|------------
--|----x----x-x-0-0-0-0-----x--|----|-0-|-------------------|----|-1-1--2-2---
--|----2--2-2-x-x-x-x-x--2--2--|-2x-|-0-|-2--2--2--2-----2--|-3x-|-2-2--2-2---
--|-2--2--2-2-x-5-5-5-5--2--2--|----|-x-|-2--2--2--2-5b--2--|----|-2-2--0-0---
--|-0--0--0-0-x-3-3-3-3--0--0--|----|-5-|-0--0--0--0-3b--0--|----|------------
Interlude> m m v vm vm vm v ^ vm v ^m v ^m
------|----|-----------------|------------------------------------------------
------|----|-----------------|------------------------------------------------
-4-4--|----|-----------------|------------------------------------------------
-2-2--|-2x-|-----------------|------------------------------------------------
-2-2--|----|-----------------|------------------------------------------------
------|----|-----------------|------------------------------------------------
v ^m outro verse riff




Ваше мнение



Капча