Join Together
By The Who, 1972
>Appears on 30 Years of Maximum R&B boxset
Written by Pete Townshend ©1972 Fabulous Music Ltd.
==============
transcribed by
[email protected]
==============
Capo on 1
F(no 3rd) 133511
Eb xx1343
Bb x13366
|F |F
When you here this sound a-comin', hear the drummers drumming,
|Eb Bb |F
I want you to join together with the band
|F
We don't move in any 'ticular directions,
|F
And we don't make no collections,
|Eb Bb |F
I want you to join together with the band
|F | (Eb) (Bb) |F |
---0---|---------|------1---------|-------------------------|----1-1--|
--/6---|---------|------1---------|-------------------------|----1-1--|
-------|2^--2^p0|------5---------|-------------------------|----5-5--|
-----3-|---------|2-----3---------|6-------1---1------------|--3-3-3--|
-----3-|---------|------3---/8-8-8|--8-6-8---3----3-0-3-0---|--3---3--|
-------|---------|-3^/1-1---------|-----------------------4^|1--------|
|F |F |
Do you really think I care what you eat or what you wear
------|-------------------------------|-----------------------------|
------|-------------------------------|-----------------------------|
------|-------------------------------|-----------------------------|
------|3----------------------3-------|3-----------------------3----|
------|-------------------3h5---------|--------------------3h5------|
------|-------1-------3/5-------------|-------1--------3/5----------|
(Eb) (Bb) |F |
I want you to join together with the band
-------------|----------------------|----------------|
-------------|----------------------|----------------|
-------------|----------------------|----------------|
-------------|3-------------3-------|3-------------3-|
-------------|----------3h5---------|----------3h5---|
-------------|--1----3/5------------|---1--3/5-------|
There's a million ways to laugh and every one's a path
Come on and join together with the band
|F |F |
1|---13---13-------------------|-----------------------1-------|
-|----------------------10-----|-----------------------1-------|
-|12^--12^--12^-10--10---12^-|10--10-12-12^-10--10~---/12-12|
-|-----------------12----------|--12-------------12------------|
-|-----------------------------|-------------------------------|
-|-----------------------------|-------------------------------|
(Eb) (Bb) |F |
|------------------------------------|---------------------|
|---------------13^-13-13-10/13/10---|---------------------|
|12-12-10-12-10-------------------12-|------3p2------------|
|------------------------------------|7p5/3----3--3-3------|
|------------------------------------|-----------5-5-5-3h5-|
|------------------------------------|---------------------|
Everybody join together, I want you to join together
Come on and join together with the band
We need you to join together, come on and join together
Come on and join together with the band
[interlude]
You don't have to play, you can follow or lead the way
I want you to join together with the band
We don't know where we're going, but the season's right for knowing
I want you to join together with the band
[flute interlude, arr for gtr]
|----------------|----------------|----------------|--13---10----------|
|----------------|----------------|10---------10-13|13-------13-10-----|
|--------------10|10---------10-10|----------------|--------------12-10|
|----------------|----------------|----------------|-------------------|
|8-----------12--|----------------|----------------|-------------------|
|----------------|----------------|----------------|-------------------|
|[guitar] | | | |
|--------------1-|--------------1-|--------------1-|--------------1----|
|--------------1-|--------------1-|--------------1-|--------------1----|
|--------------5-|--------------5-|--------------5-|--------------5----|
|3-----------3---|3-----------3---|3-----------3---|3-----------3------|
|--------3h5-----|--------3h5-----|--------3h5-----|--------3h5--------|
|--1--3/5--------|--1--3/5--------|--1--3/5--------|--1--3/5-----------|
[slight variation for this verse]
|F |F |
It's the singer not the song that makes the music move along,
--------|------------------------------------|-----------------------|
--------|------------------------------------|-----------------------|
--------|------------------------------------|-----------------------|
--------|3----------------------3h53p1------|3---------------3h53p1|
--------|-------------------3h5--------------|-------------3h5-------|
--------|-------1-------3/5------------------|------1---3/5----------|
I want you to join together with the band
This is the biggest band you'll find, it's as deep as it is wide,
Come on and join together with the band
Hey hey hey hey hey hey, well, everybody come on
(join together...)
Come on and join, join together with the band
We need you to join together, everybody come on
Hey hey hey, join together with the band
=============
[email protected]




Ваше мнение



Капча