t. See http://www.olga.net/faq/ for more information. #
From: "Andrzej Mancewicz"
Subject: h/houston_whitney/my_love_is_your_love.tab
Date: Sun, 17 Oct 1999 14:32:39 +0200
WHITNEY HOUSTON - My Love Is Your Love (from the album of the same =
title)
(Verses)
Riff 1:
C G Am (Am)
e-------------|------------|-------------|-------------|
H-------------|------------|-------------|-------------|
G---------5---|------------|---------2---|--------2----|
D---------5---|-------5----|---------2---|--------2----|
A-3---3-3-----|-------5----|-0---0-0-----|--0--0-------|
E------------0|-3--3-----3-|-------------|-------------|
If is judgement day...
Riff 2:
F C G (G)
e-------------|------------|-------------|-------------|
H-------------|------------|-------------|-------------|
G-------------|-------5----|-------------|-------------|
D---------3---|-------5----|---------5---|-------5-----|
A---------3---|-3--3-----3-|---------5---|-------5-----|
E-1---1-1----1|------------|-3---3-3-----|-3--3--------|
And standing frontline...
Riff 3:
C G Am F
e-------------|------------|-------------|-------------|
H-------------|------------|-------------|-------------|
G---------5---|------------|---------2---|-------------|
D---------5---|-------5----|---------2---|-------3-----|
A-3---3-3-----|-------5----|-0---0-0-----|-------3-----|
E------------0|-3--3-----3-|------------0|-1--1------1-|
And Lord ask did life...
Riff 4:
C G C G
e-------------|------------|-------------|-----------|
H-------------|------------|-------------|-----------|
G---------5---|------------|---------5---|-----------|
D---------5---|-------5----|---------5---|------5----|
A-3---3-3-----|-------5----|-3---3-3-----|------5----|
E------------0|-3--3-----3-|------------0|-3--3----3-|
I will say spent you
(Chorus)
(goes like that)
Riff 3 |
Riff 5 |--(2x)
Riff 3 |
Where Riff 5 is:
e ---------|
H ---------|
G ---------|
D ---------|
A --3h5p3--|
E ---------|
(Verse1)
(Chorus)
(Verse2)
(Repeat Chorus)
(Verse3)
(Repeat Chorus)
(Fade)
So I heard the piece, thought it would be good to play, but haven't =
found it in the archive, so had to tab it myself. Hope it's tabbed =
right, at least it sounds well, but I'm open for every correction, =
comment, etc. HAVE FUN - ANDREW ([email protected])
------=_NextPart_000_0004_01BF18AC.76B6DB80
Content-Type: text/html;
charset="iso-8859-2"
Content-Transfer-Encoding: quoted-printable

WHITNEY HOUSTON - My Love Is Your Love (from the album of the same =
title)
(Verses)
Riff 1:
C G Am (Am)
e-------------|------------|-------------|-------------|
H-------------|------------|-------------|-------------|
G---------5---|------------|---------2---|--------2----|
D---------5---|-------5----|---------2---|--------2----|
A-3---3-3-----|-------5----|-0---0-0-----|--0--0-------|
E------------0|-3--3-----3-|-------------|-------------|
If is judgement day...
Riff 2:
F C G (G)
e-------------|------------|-------------|-------------|
H-------------|------------|-------------|-------------|
G-------------|-------5----|-------------|-------------|
D---------3---|-------5----|---------5---|-------5-----|
A---------3---|-3--3-----3-|---------5---|-------5-----|
E-1---1-1----1|------------|-3---3-3-----|-3--3--------|
And standing frontline...
Riff 3:
C G Am F
e-------------|------------|-------------|-------------|
H-------------|------------|-------------|-------------|
G---------5---|------------|---------2---|-------------|
D---------5---|-------5----|---------2---|-------3-----|
A-3---3-3-----|-------5----|-0---0-0-----|-------3-----|
E------------0|-3--3-----3-|------------0|-1--1------1-|
And Lord ask did life...
Riff 4:
C G C G
e-------------|------------|-------------|-----------|
H-------------|------------|-------------|-----------|
G---------5---|------------|---------5---|-----------|
D---------5---|-------5----|---------5---|------5----|
A-3---3-3-----|-------5----|-3---3-3-----|------5----|
E------------0|-3--3-----3-|------------0|-3--3----3-|
I will say spent you
(Chorus)
(goes like that)
Riff 3 |
Riff 5 |--(2x)
Riff 3 |
Where Riff 5 is:
e ---------|
H ---------|
G ---------|
D ---------|
A --3h5p3--|
E ---------|
@lyrics
(Verse1)
If tomorrow is judgement day (sing mommy)
And I'm standin' on the front line
And the Lord ask me what I did with my life
I will say I spent it with you
If I wake up in World War III
I see destruction and poverty
And I feel like I wanna go home
It's okay if you're comin' with me
(Chorus)
Your love is my love
And my love is your love
It would take an eternity to break us
And the chains of Amistad couldn't hold us
(Verse2)
If I lose my fame and fortune
And I'm homeless on the street
And I'm sleepin' in Grand Central Station
It's okay if you're sleepin' with me
As the years they pass us by
We stay young through each other's eyes
And no matter how old we get
It's okay as long as I got you babe
(Repeat Chorus)
(Verse3)
If I should die this very day (very, very day)
Don't cry, cause on earth we wasn't meant to stay
And no matter what people say (really don't matter)
I'll be waiting for you after judgement day
(Repeat Chorus)
(Fade)
So I heard the piece, thought it would be good to play, but haven't =
found it=20
in the archive, so had to tab it myself. Hope it's tabbed right, at =
least it=20
sounds well, but I'm open for every correction, comment, etc. HAVE FUN - =
ANDREW=20
([email protected])
------=_NextPart_000_0004_01BF18AC.76B6DB80--




Ваше мнение



Капча