INTRO:
E|----------------------------|---------------------------|
B|----------------------------|---------------------------|
G|-5-5-4--5-5-4--5-5-4--5-5-4-|-5-5-5-4-------------------|
D|-x-x-x--x-x-x--x-x-x--x-x-x-|-x-x-x-x-------------------|
A|-3-3-2--3-3-2--3-3-2--3-3-2-|-3-3-3-2-------------------|
E|----------------------------|---------------------------|
E|----------------------------|---------------------------|
B|----------------------------|---------------------------|
G|-5-5-4--5-5-4--5-5-4--5-5-4-|-5-5-5-4-------------------|
D|-x-x-x--x-x-x--x-x-x--x-x-x-|-x-x-x-x-------------------|
A|-3-3-2--3-3-2--3-3-2--3-3-2-|-3-3-3-2-------------------|
E|----------------------------|---------------------------|
CHORUS:
E|-----------------------------|-----------------------------|
B|-----------------------------|-----------------------------|
G|-----------------------------|-----------------------------|
D|-3h5--5-5--3h5--5-5--3h5-3-0-|-3h5--5-5--3h5--5-5--3h5-3-0-|
A|-3h5--5-5--3h5--5-5--3h5-3-0-|-3h5--5-5--3h5--5-5--3h5-3-0-|
E|-3h5--5-5--3h5--5-5--3h5-3-0-|-3h5--5-5--3h5--5-5--3h5-3-0-|
E|-----------------------------|-----------------------------|
B|-----------------------------|-----------------------------|
G|-----------------------------|-----------------------------|
D|-3h5--5-5--3h5--5-5--3h5-3-0-|-3h5--5-5--3h5--5-5--3h5-3-0-|
A|-3h5--5-5--3h5--5-5--3h5-3-0-|-3h5--5-5--3h5--5-5--3h5-3-0-|
E|-3h5--5-5--3h5--5-5--3h5-3-0-|-3h5--5-5--3h5--5-5--3h5-3-0-|
Fill 1:
E|------------------------------------------|---------------------------|
B|------------------------------------------|---------------------------|
G|-12-12-12-12-12-x-12--12-12--12--12-12-12-|---------------------------|
D|----------------x-12--12-12--11--11-11-11-|---------------------------|
A|----------------x-10--10-10--10--10-10-10-|---------------------------|
E|------------------------------------------|---------------------------|
E|------------------------------------------|---------------------------|
B|------------------------------------------|---------------------------|
G|-12-12-12-12-12-x-12--12-12--12--12-12-12-|---------------------------|
D|----------------x-12--12-12--11--11-11-11-|---------------------------|
A|----------------x-10--10-10--10--10-10-10-|---------------------------|
E|------------------------------------------|---------------------------|
E|-----------------------------------------|---------------------------|
B|-----------------------------------------|---------------------------|
G|-12-12-12-12-12-x-12-12-12-12-12-12-12---|---------------------------|
D|----------------x------------------------|---------------------------|
A|----------------x------------------------|---------------------------|
E|-----------------------------------------|---------------------------|
E|-15-15-15-15-15--x-15-15-15-15-15-15-15---|---------------------------|
B|-15-15-15-15-15--x-15-15-15-15-15-15-15---|---------------------------|
G|-12-12-12-12-12--x-12-12-12-12-12-12-12---|---------------------------|
D|------------------------------------------|---------------------------|
A|------------------------------------------|---------------------------|
E|------------------------------------------|---------------------------|
Verse intro:
E|--------------------------------------------|
B|--------------------------------------------|
G|-------------------------5b(7)-5b(7)-5b(7)--|
D|--------------------------------------------|
A|--------------------------------------------|
E|-3p0-0-5p0-0-6p0-0-5p0-0--------------------|
E|----------------------------------------|
B|----------------------------------------|
G|-------------------------5b(7)---5b(7)--|
D|----------------------------------------|
A|----------------------------------------|
E|-3p0-0-5p0-0-6p0-0-5p0-0----------------|
VERSE:
E|-----------------------------------|-------------------------------|
B|-----------------------------------|-------------------------------|
G|-----------------------------------|-------------------------------|
D|--------------------------6--6-----|-------------------------6--6--|
A|--------------------------6--6-----|-------------------------6--6--|
E|-3p0-0-5p0-0-6p0-0-5p0-0--6--6-----|-3p0-0-5p0-0-6p0-0-5p0-0-6--6--|
E|-----------------------------------|-------------------------------|
B|-----------------------------------|-------------------------------|
G|-----------------------------------|-------------------------------|
D|--------------------------6--6-----|-------------------------6--6--|
A|--------------------------6--6-----|-------------------------6--6--|
E|-3p0-0-5p0-0-6p0-0-5p0-0--6--6-----|-3p0-0-5p0-0-6p0-0-5p0-0-6--6--|
Fill 2:
verse intro variation with drums - guitar plays bends as follows:
E|--------------------------------------------|
B|--------------------------------------------|
G|-------------------------5b(7)-5b(7)-5b(7)--|
D|---(DRUMS)----------------------------------|
A|--------------------------------------------|
E|--------------------------------------------|
E|----------------------------------------|
B|----------------------------------------|
G|--------------------------5b(7)---5b(7)-|
D|---(DRUMS)------------------------------|
A|----------------------------------------|
E|----------------------------------------|
Fill 3:
Bass plays verse intro and guitar plays bends as follows:
E|--------------------------------------------|
B|--------------------------------------------|
G|-------------------------5b(7)-5b(7)-5b(7)--| GUITAR
D|--------------------------------------------|
A|--------------------------------------------|
E|--------------------------------------------|
: :
: :
: :
G|--------------------------------------------|
D|--------------------------------------------|
A|--------------------------------------------| BASS
E|-3p0-0-5p0-0-6p0-0-5p0-0--6----------6------|
E|----------------------------------------|
B|----------------------------------------|
G|--------------------------5b(7)---5b(7)-| GUITAR
D|----------------------------------------|
A|----------------------------------------|
E|----------------------------------------|
: :
: :
: :
G|----------------------------------------|
D|----------------------------------------|
A|----------------------------------------| BASS
E|-3p0-0-5p0-0-6p0-0-5p0-0---6--------6---|

Fill 4: This is the last 2 bars of the song
E|-----------------------------|-----------------------------|
B|-----------------------------|-----------------------------|
G|-----------------------------|-----------------------------|
D|-3h5--5-5--3h5--5-5--3h5-3-0-|-3--------------------------|
A|-3h5--5-5--3h5--5-5--3h5-3-0-|-3--------------------------|
E|-3h5--5-5--3h5--5-5--3h5-3-0-|-3--------------------------|
Fill 5: This is the last 2 bars of the song
It just doubles fill 4.
E|-----------------------------|-----------------------------|
B|-----------------------------|-----------------------------|
G|-----------------------------|-----------------------------|
D|-3h5--5-5--3h5--5-5--3h5-3-0-|-10-------------------------|
A|-3h5--5-5--3h5--5-5--3h5-3-0-|-10-------------------------|
E|-3h5--5-5--3h5--5-5--3h5-3-0-|--8-------------------------|




Ваше мнение



Капча