t. See http://www.olga.net/faq/ for more information. #
From: "cancer igeno"
Subject: w/white_zombie/spiderbaby.tab
Date: Wed, 21 Jul 1999 00:27:37 GMT
Author/Artist: White Zombie
Title: Spider Baby
Album: La Sexorctiso: Devil Music Vol. 1
Transcribed by: Julio Oleas "EXORCISTA"
Email: [email protected]
My third tab. Look for spacing, also use heavy distorsion, there are some
parts that donґt use heavy distorsion, "J" used some phaser. Listen to the
song and youґll understand this tab. It is really easy to play this one.
If someone would like to tab the acoustic intro for "Iґm Legend", please
e-mail me.
------------------------------------------------------------------------------
------------------------------------------------------------------------------
------------------------------------------------------------------------------
-2----3-3----2----3-3--3-3-3-3----2----3-3----2-------------------------------
-2----1-1----2----1-1--1-1-1-1----2----1-1----2--2/17\5-----------------------
-0----x-x----0----x-x--x-x-x-x----0----x-x----0-------------------------------
( i n t r o )
--------------------------|---------------------------------------------------
--------------------------|---------------------------------------------------
--------------------------|---------------------------------------------------
-5-5-4-5-5-4-5-5--6-5-6-7-|-5-5-4-5-5-4-5-5--6-5-6-7--------------------------
-5-5-4-5-5-4-5-5--4-3-4-5-|-5-5-4-5-5-4-5-5--4-3-4-5--------------------------
-3-3-2-3-3-2-3-3----------|-3-3-2-3-3-2-3-3-----------------------------------
( 4 t i m e s ) Yeah ...
-2-----2-----2-------2-3--2-----2-----2-------3-4--2-----2-----2-----2-----2--
-1-1-----1-----1---1------1-1-----1-----1---1------1-1-----1-----1-----1------
-2---2-----2-----2--------2---2-----2-----2--------2---2-----2-----2-----2----
------------------------------------------------------------------------------
------------------------------------------------------------------------------
------------------------------------------------------------------------------
-----------------------|------------------------------------------------------
-3-3---2-2---1-1---0---|------------------------------------------------------
-----0-----0-----0-----|------------------------------------------------------
-----------------------|-5-5-4-5-5-4-5-5--6-5-6-7-----------------------------
-----------------------|-5-5-4-5-5-4-5-5--4-3-4-5-----------------------------
-----------------------|-3-3-2-3-3-2-3-3--------------------------------------
-2-----2-----2-------2-3--2-----2-----2-------3-4--2-----2-----2-----2-----2--
-1-1-----1-----1---1------1-1-----1-----1---1------1-1-----1-----1-----1------
-2---2-----2-----2--------2---2-----2-----2--------2---2-----2-----2-----2----
------------------------------------------------------------------------------
------------------------------------------------------------------------------
------------------------------------------------------------------------------
-----------------------|------------------------------------------------------
-3-3---2-2---1-1---0---|------------------------------------------------------
-----0-----0-----0-----|------------------------------------------------------
-----------------------|------------------------------------------------------
-----------------------|-0^0^0^0-7--0^0^0^0-6--0^0^0^0-5--0^0^0^0-4--0^0^0^0--
-----------------------|-0^0^0^0-5--0^0^0^0-4--0^0^0^0-3--0^0^0^0-2--0^0^0^0--
-------------------------------------------------|----------------------------
-------------------------------------------------|----------------------------
-------------------------------------------------|----------------------------
-------------------------------------------------|----------------------------
-6-7--0^0^0^0-7--0^0^0^0-6--0^0^0^0-5--0^0^0^0-4-|-0-0-0-7-0-6-0-7-0-6-0-5h7--
-4-5--0^0^0^0-5--0^0^0^0-4--0^0^0^0-3--0^0^0^0-2-|----------------------------
( 2 t i
---------------------------|--------------------------------------------------
---------------------------|--------------------------------------------------
---------------------------|--------------------------------------------------
---------------------------|--------------------------------------------------
-0-0-0-7-0-6-0-7-0-6-6-5-4-|-0-0-7-0-6-0-7-0-6-0-5h7--0-0-7-0-6-0-7-0-6-0-4vv-
---------------------------|--------------------------------------------------
m e s ) Well ..
---------------------------------------------------|--------------------------
---------------------------------------------------|--------------------------
---------------------------------------------6vv---|--------------------------
---------------------------------------------6vv---|--------------------------
-0-0-7-0-6-0-7-0-6-0-5h7-0-0-7-0-6-0-7-0-6-0-4vv---|--------------------------
---------------------------------------------------|--------------------------
------------------------------------------------------------------------------
------------------------------------------------------------------------------
------------------------------------------------------------------------------
-x-x-x--x-x---x-x-----3^xp2^x-0-x-x--x-x---x-x-----3^xp2^x-0-x-x--x-x---x-x---
-x-x-x--x-x---x-x-----3^xp2^x-0-x-x--x-x---x-x-----3^xp2^x-0-x-x--x-x---x-x---
------------------------------------------------------------------------------
--------------------------|---------------------------------------------------
--------------------------|---------------------------------------------------
--------------------------|---------------------------------------------------
-3^xp2^x-0-x-x--x-x---x-x-|---------------------------------------------------
-3^xp2^x-0-x-x--x-x---x-x-|-0-0-7-0-6-0-7-0-6-5h6h7--0-0-7-0-6-0-7-0-6-7p6p5--
--------------------------|---------------------------------------------------
Well ...
----------------------------------------------------|-------------------------
----------------------------------------------------|-------------------------
----------------------------------------------6*7---|-------------------------
----------------------------------------------6*7---|-------------------------
-0-0-7-0-6-0-7-0-6-5h6h7--0-0-7-0-6-0-7-0-6-0-4*5vv-|-------------------------
----------------------------------------------------|-------------------------
-2-----2-----2-------2-3--2-----2-----2-------3-4--2-----2-----2----2-----2---
-1-1-----1-----1---1------1-1-----1-----1---1------1-1-----1-----1----1-------
-2---2-----2-----2--------2---2-----2-----2--------2---2-----2----2-----2-----
------------------------------------------------------------------------------
------------------------------------------------------------------------------
------------------------------------------------------------------------------
( n o d i s t o r s i o n )
----------------------2-----2-----2-------2-3--2-----2-----2-------2-3-4--2---
-3-3---2-2---1-1---0--1-1-----1-----1---1------1-1-----1-----1---1--------1---
-----0-----0-----0----2---2-----2-----2--------2---2-----2-----2----------2---
------------------------------------------------------------------------------
------------------------------------------------------------------------------
------------------------------------------------------------------------------
-----2-----2-------0-----------------------|----------------------------------
-1-----1-----1---1---3-3---2-2---1-1---0---|----------------------------------
---2-----2-----2---------0-----0-----0-----|----------------------------------
-------------------0-----------------------|-----------2-3--------------------
-------------------------------------------|-----------2-3--------------------
-------------------------------------------|-0-/12\7v--0-1-x-x--0-/12\7v-7-7--
------------------------------------------------------------------------------
-------------------------------------------------x-x---x-x--------------x-x---
-------------------------------------------------x-x---x-x--7/12-10-10--8-8---
-------------------2-3---------------------------x-x---x-x--------10-10-x-x---
-----7\------------2-3-x-x--------------------7--x-x---x-x--------------x-x---
-0-6-5\--0-/12\7v--0-1-0-0--0-/12\7v--7-7-0-6-5-------------------------------
-------------------------|--------------------------------------------------|-
-------------------------|--------------------------------------------------|-
-----7/12-10-10--8-8-----|----7/12-10-10--8-8------------7/12-10-10--8-8----|-
-7-7-------10-10-7-7-7*8-|7-7-------10-10-7-7-x-x-7--7-7-------10-10-7-7--8-|-
-7-7-------------7-7-----|7-7-------------7-7-x-x-7--7-7-------------7-7--8-|-
-------------------------|------------------------5-----------------------6-|-
( r e p e a t 1 2 t i m e s )
------------------------------------------------------------------------------
------------------------------------------------------------------------------
-----7/12-10-10--8------------------------------------------------------------
-7-7-------10-10-7------------------------------------------------------------
-7-7-------------7------------------------------------------------------------
------------------------------------------------------------------------------
(ends like this)




Ваше мнение



Капча