Date: Sun, 4 Feb 1996 23:09:22 -0600
From: "Paul M. Stanek"
Subject: WHITE ZOMBIE-I ZOMBIE TAB3
I ZOMBIE
by WHITE ZOMBIE
from: Astrocreep 2000: Songs of love, destruction, and other
syntetic delusions of Electric Head
KEY
P.M.-palm muting
//-slide
DIVE-trem dive
Tune 6 string to D
Riff 1
P.M.
---------------------------------------------------
---------------------------------------------------
---------------------------------------------------
--2--2--2--2--2--2--2--2--2--2--2--2--2--2--2--2--3
--2--2--2--2--2--2--2--2--2--2--2--2--2--2--2--2--3
--2--2--2--2--2--2--2--2--2--2--2--2--2--2--2--2--3
P.M.
---------------------------------------------------
---------------------------------------------------
---------------------------------------------------
--2--2--2--2--2--2--2--2--2--2--2--2--2--2--2--2--1
--2--2--2--2--2--2--2--2--2--2--2--2--2--2--2--2--1
--2--2--2--2--2--2--2--2--2--2--2--2--2--2--2--2--1
Riff 2:
P.M.
----------------------------------
----------------------------------
----------------------------------
--2--2--2--2--2--2---2--2--2--2--3
--2--2--2--2--2--2---2--2--2--2--3
--2--2--2--2--2--2---2--2--2--2--3
P.M.
----------------------------------
----------------------------------
----------------------------------
--2--2--2--2--2--2---2--2--2--2--1
--2--2--2--2--2--2---2--2--2--2--1
--2--2--2--2--2--2---2--2--2--2--1
Bridge:
------------------------------------------------------
------------------------------------------------------
------------------------------------------------------
------------------------------------------------------
------------------------------------------------------
--4-4-4-4-4-4-4-4-4-4-4-4/8-8-8-8-8/-10-10-10-10-10-10
-----
-----
-----
--2--
--2--
--2--
DIVE
Outro: Bridge Riff then:
----------------------------------
----------------------------------
----------------------------------
--------------------------8--10--8
--------------------------8--10--8
--4-4-4-4-4-4-4-4-4-4-4-4/8--10--8
The Song ends on:
-----
-----
-----
--4--
--4--
--4--
Well, that's it. If you want to play the higher notes during riff
1&2 just barre the chord over on the 2&3 strings (i.e; the barres
of 3&1).
During the bridge, a second guitar plays random notes on the
first string. Make a special note to do this during the DIVE
part.
To play the song right you will need to play the sixteenth notes
with up and down motions with the pick. If you are a master of
NIRVANA, this will come easy. Play along with it, you'll get the
hang of it.
Oh yeah, The verses use Riff 2 except verse 3; it uses riff 1.
The choruses us Riff1.
Transcribed by DEDHED
Email: [email protected]

--=====================_823397966==_--




Ваше мнение



Капча