From: "M. GRILLS"
Date: Thu, 18 Jan 1996 12:44:15 GMT0BST
Subject: TAB: ARTIST: White Zombie TiTLE: Electric Head Part 2: The Ecsta
Electric Head Part 2: The Ecstasy
From White Zombie's Astro Creep 2000
Tabbed by Mark Grills (aligns with Courier 10)
(into riff:) P.M.
||----------------------------|------------------------||
||----------------------------|------------------------||
||*---------------------------|-----------------------*||
||*---4--4--7--7--9--9--10-10-|--4--4--7--7--9-9-3-3--*||
||----x--x--x--x--x--x--x--x--|--x--x--x--x--x-x-x-x---||
||----2--2--5--5--7--7--8--8--|--2--2--5--5--7-7-1-1---||
riff A main verse riff C
-------3--3--------3--3--|---------------------------|----------------|
-------3--3--------3--3--|---------------------------|----------------|
-------3--3--------3--3--|---------------------------|----------------|
-2--2--------2--2--------|---------------------------|-----4----4---4-|
-2--2--2--2--2--2--2--2--|---------------------3--3--|----------------|
-------3--3--------3--3--|---0--0--0--0--0--0--1--1--|--2----1----0---|
We all go down ....
riff D riff E
-------------|-----------------------|
-------------|-----------------------|
-------------|-----------------------|
-4--7--6--5--|-------10-----11---11--|
-------------|----9------10----11----|
-2--5--4--3--|-----------------------|
Notes - Palm muting throughout
------
1. Riff A which follows the intro is best played
by resting the ring finger across strings 1-2-3.
2. Riff C ends with some percussive strumming.
barred left hand finger across all strings e.g.
behind the 1st fret to mute strings.
3. Riff D -Lots of octaves used in this song.
This riff ends the song and is played with rapid
strumming using a Whah pedal or something.
/////////////////////////////////////////////////////////////////
But the fearful, and unbelieving, and the
abominable and murderers,and whoremongers,
and sorcerers, and idolaters, and all liars, shall
have their part in the lake which burneth with fire
and brimstone:which is the second death.
- Revelation 21.8
Anyone got any tickets for this gig !!!
//////////////////////////////////////////////////////////////////////




Ваше мнение



Капча