White Zombie
Electric Head Pt. 2
Tune 1/2 steps down
Intro Play 4X Play 4X
Riff A_______________________________|
|-------------------|-----------------||-------3-------3-||
|-------------------|-----------------||-------3-------3-||
|-------------------|-----------------||-------3-------3-||
|-4-4-7-7-9-9-10-10-|-4-4-7-7-9-9-3-3-||-2-2-2-0-2-2-2-0-||
|-------------------|-----------------||-2-2-2-2-2-2-2-2-||
|-2-2-5-5-7-7--8--8-|-2-2-5-5-7-7-1-1-||-0-0-0-3-0-0-0-3-||
PM-| PM-|
Play 8X Play 4X
Verses Chorus
Start Of Coda Riff B__________________________|
|---------------------||-------------|-------------------||
|---------------------||-------------|-------------------||
|---------------------||-------------|-------------------||
|---------------------||---4---4---4-|-x-x-x-x-x-x-x-x-x-||
|-----------------5---||-------------|-x-x-x-x-x-x-x-x-x-||
|-0-0-0-0-0-0-0-0-3-0-||-2---1---0---|-x-x-x-x-x-x-x-x-x-||
PM------------| PM PM---------------|
Play 4X
Riff C___________| Riff D___________|
|---------------------||-Play Riff B--||------------------||
|---------------------||-4X-----------||------------------||
|---------------------||-Then---------||------------------||
|-x-x-x-x-x-x-x-x-(x)-||-Play Riff C--||---11----11----11-||
|-x-x-x-x-x-x-x-x-(x)-||-5X with-(x)--||-9----10----11----||
|-x-x-x-x-x-x-x-x-(x)-||--------------||------------------||
PM-----------------|
Play 2X
Synth arr. for gtr.
|-Play Riff A-||----------------------------------------||
|-6X----------||----------------------------------------||
|-------------||----------------------------------------||
|-------------||----------------------------------------||
|-------------||----------------------------------------||
|-------------||-0-12-0-0-1-0-12-12-0-12-0-0-12-0-12-12-||
PM------------------------------------|
Coda
Guitar 1
Riff E (Both Guitars)
|-|------------------|------------------|
| |------------------|------------------|
| |------------------|------------------|
| |-4444444444444444-|-7777777777777777-|
| |------------------|------------------|
| |-2222222222222222-|-5555555555555555-|
| Gtr. 2 (with wah)
| |------------------|---------------------|
| |-77--77--77--77---|-1010-1010-1010-1010-|
| |------------------|---------------------|
| |-44--44--44--44---|--8-8--8-8--8-8--8-8-|
| |------------------|---------------------|
|-|------------------|---------------------|
Repeat 1 time
End of E Riff
|-|------------------|------------------||
| |------------------|------------------||
| |------------------|------------------||
| |-6666666666666666-|-5555555555555555-||
| |------------------|------------------||
| |-4444444444444444-|-3333333333333333-||
|
| |------------------|------------------||
| |-99--99--99--99---|-88--88--88--88---||
| |------------------|------------------||
| |-66--66--66--66---|-55--55--55--55---||
| |------------------|------------------||
|-|------------------|------------------||
Gtrs. 1+2 play Riff E untill fade out
Gtr. 3+4 are playing octaves till end




Ваше мнение



Капча