Band:White Zombie
Song:Electric Head
By:Kenny Neumann

Intro:
2x 2x
G|-----------------------------------|-------------------|
D|*---------------------------------*|*-----------------*|
A|*---------1-1-2-2---------1-1-0-0-*|*-7-7-6-6-5-5-4-4-*|
E|--1-1-4-4---------1-1-4-4----------|-------------------|

Verse:

all open E's

Chorus:
4x
G|------------------------------|
D|*----------------------------*|
A|*-7-7-6-6-5-5----------------*|
E|--------------0-0-0-0-0-0-0-0-|

Outro:

G|-----------------------------------|
D|*---------------------------------*|
A|*---------------------------------*|
E|--1-1-1-1-4-4-4-4-3-3-3-3-2-2-2-2--|




Ваше мнение



Капча