Date: Sun, 7 Apr 1996 21:35:32 -0700 (PDT)
From: [email protected] (sandi hayes)
Subject: TAB: Electric Harley House Of Love by Green Jello
Electric Harley House of Love
By Green Jello
!TIMING IS TABBED CORRECTLY WITH RHYTHM AND LEAD GUITARS!
Key:
(x)= muted note
\ = slide down
/slide
^pick in downward stroke
vpick with an upward stroke
Intro-
Acoustic guitar:
E C B
e-|--7-7---------------7--------------3--------------2-------|--
B-|--8---8-----------8---8----------4---4----------3---3-----|--
G-|--9-----9-------9-------9------5-------5------4-------4---|--
D-|--9-------9---9---------9----5---------5----4---------4---|--
A-|--7---------7-----------7--3-----------3--2-----------2---|--
E-|----------------------------------------------------------|--
E C B
e-|----------7---8---9---8---7--------------3--------------2-|--
B-|--------8---8-------8-------8----------4---4----------3---|--
G-|------9---------9-------9-----9------5-------5------4-----|--
D-|----9-------------------------9----5---------5----4-------|--
A-|--7---------------------------7--3-----------3--2---------|--
E-|----------------------------------------------------------|--
Distorted electric guitar:
Rhythm and Lead guitars-
e-|----------------------------------------------------------|--
B-|----------------------------------------------------------|--
G-|----------------------------------------------------------|--
D-|--5--4--2-----4--2----------------------------------------|--
A-|--3--2--0--5--2--0--5--4--2-------------------------------|--
E-|-----------3--------3--2--0-------------------------------|--
rhythm (does this through entire intro)-repeat 4 times then bring in
lead and continue rhythm
e-|----------------------------------------------------------------|--
B-|----------------------------------------------------------------|--
G-|----------------------------------------------------------------|--
D-|----------------------------------------------------------------|--
A-|----------------------------------------------------------------|--
E-|-(0)(0)(0)(0)(0)(0)(0)(0)(0)(0)(0)(0)(0)(0)(0)(0)(0)(0)(0)(0)(0)|--
^ ^ v ^ ^ v ^ ^ v ^ ^ v ^ ^ v ^ v ^ v ^ v
lead (mix with rhythm)-do this 4 times then verses
e-|----------------------------------------------------------------|--
B-|----------------------------------------------------------------|--
G-|----------------------------------------------------------------|--
D-|----------------------------------------------------------------|--
A-|--9----9-------5----5-------4-------7------9--------------------|--
E-|--7----7-------3----3-------2-------5------7--(0)(0)(0)(0)(0)(0)|--
^ v ^ v ^ v
Sorry folks! But I can't help you from here on!
tabbed out by Kyle Hayes
[email protected]


Ваше мнение



Капча