Date: Tue, 14 Jan 1997 14:37:18 +0100 (MET)
From: Phil COVAL
(White Zombie's EL PHANTASMO and the Realised by Psylip
AstroCreep #9) Chicken-Run Blast-O-Rama Coval
[INTRO] Riff_1 x4
1|-------------------------------------------|
2|-------------------------------------------|
3|-------------------------------------------| ..
4|:-3-/-4--------------5--------5--------5--:| 0 = heavy palm muting
5|--1-/-2---3-/-4---..-3--.....-3--.....-3---|
6|----------1-/-2---0-----0--0-----0--0------|
[PRE-VERSE-1] (0:14) Riff_2 x4
1|--------------------------------------------------------------|
2|--------------------------------------------------------------|
3|--------------------------------------------------------------|
4|---------------------------------------------5-5-5-5-6-6-6-6--|
5|---------------------------------------------5-5-5-5-6-6-6-6--|
6|-2-0h2--0h2--0h2--0h2--0h2--0h2--0h2--0h2--0-3-3-3-3-4-4-4-4--|
[VERSE-1] (0:32) Riff_3 x4
1|--------------------------------------------------------|
2|--------------------------------------------------------|
3|--------------------------------------------------------|
4|---------3-/-4------------------------------------------|
5|--1-/-2--3-/-4------------------------------------------|
6|--1-/-2-------------------------------------------------|
Yeah! I Penetrate the demons
Their teardrops burn away my eyes
I love the paper-thin cry of the locust
Is there and other way to die?
[CHORUS] (0:50) Riff_2 x4
eyeeeeeeeeeeeeeeeeeeee________
Find me another hell
And the deathbird ride
Yeah! Yeah! Yeah, the motherf*cker!
[VERSE-2] (1:08) Riff_3 x4
Yeah! I'm down-drifting slowly
Going close enough to the sky
New world gone slay the devil
Can you show me a better way to die?
[CHORUS] (1:26) Riff_2 x4
[BREAK] (1:54) Keyboard interlude ; Whammy bar effects
Try picking all of the strings behind the nut and jerking on the whammy bar.
Then do a whole bunch of pick scrapes and a B (x244xx) chord.
[PRE-VERSE] (2:33) Riff_2 x4
[VERSE-3] (2:50) Riff_3 x4
New lovers bang the corpses
Eat the rain and don't ask why
I am a plague in an 18-wheeler
Get behind the wheel I'm gonna drive
[OUTRO] Riff_5 x4 w/ "yeahhhhh" (3:27) Riff_6 x8
1|----------------------------------------------------[x4]|--------------[x8]
2|-------------------------------------------------------||-----------------|
3|-------------------------------------------------------||-7-7-7-7-8-8-9-9-|
4|:-----------------------------------------------------:||:5-5-5-5-6-6-7-7-|
5|-4-.-4-.-4-.-4-.-4-.-4-.-4-.-4-.-4-.-4-.-4-.-4-.-4-.-4-||-----------------|
6|-2-0-2-0-2-0-2-0-2-0-2-0-2-0-2-0-2-0-2-0-2-0-2-0-2-0-2-||-----------------|
---------------------------------------------------------------------------
[ NOTES ]
Credits:
Philippe Coval - E MailTo:[email protected] - Dec 1995 / Jan 97
Tom Mallon - (?) - Jul 1995
Words of Tom Wallon :
Tune down a minor third (Tune down 1.5 steps) (C#, F#, B, E, G#, C#)
There you go. It may not be completely correct, but it sounds good this way.
In the outro Riff_5: this number of chords may not be correct, listen and
play along




Ваше мнение



Капча