Band:White Zombie
Song:Cosmic Monsters Inc.
By:Kenny Neumann

Intro:
E-------------------------------|------------------------------------------|---
B-------------------------------|------------------------------------------|---
G-------------------------------|------9-8------------------9-8------------|---
D-x-x-x-x-x-x-x-x-x-x-x-x-x-x-x-|-7-6--7-6--9-8-7-6-5--7-6--7-6--9-8-7-6-5-|---
A-x-x-x-x-x-x-x-x-x-x-x-x-x-x-x-|-5-4-------7-6-5-4-3--5-4-------7-6-5-4-3-|---
E-0-0-0-0-0-0-0-0-0-0-0-0-0-0-0-|------------------------------------------|---

------------------------------------------|-------------------------------|---
------------------------------------------|-------------------------------|---
------9-8------------------9-8------------|-------------------------------|---
-7-6--7-6--9-8-7-6-5--7-6--7-6--9-8-7-6-5-|-x-x-x-x-x-x-x-x-x-x-x-x-x-x-x-|---
-5-4-------7-6-5-4-3--5-4-------7-6-5-4-3-|-x-x-x-x-x-x-x-x-x-x-x-x-x-x-x-|---
------------------------------------------|-0-0-0-0-0-0-0-0-0-0-0-0-0-0-0-|---

------------------------------------------------------------------------------
------------------------------------------------------------------------------
------9-8------------------9-8------------------9-8------------------9-8------
-7-6--7-6--9-8-7-6-5--7-6--7-6--9-8-7-6-5--7-6--7-6--9-8-7-6-5--7-6--7-6--9---
-5-4-------7-6-5-4-3--5-4-------7-6-5-4-3--5-4-------7-6-5-4-3--5-4-------7---
------------------------------------------------------------------------------

---------8/11-9-------------------|-------------------------------------------
----------------11-10-------------|-------------------------------------------
----------------------13-11-------|-----4-x-3-x-4-x-3------------4-x-3-x-4-x--
-8-7-6-5--------------------12-11-|-----4-x-3-x-4-x-3-3-4-5------4-x-3-x-4-x--
-6-5-4-3--------------------------|-0-0-2-x-1-x-2-x-1-1-2-3--0-0-2-x-1-x-2-x--
----------------------------------|-------------------------------------------

---------------------------------------------------------------------|--------
---------------------------------------------------------------------|--------
-3------------4-x-3-x-4-x-3------------4-x-3-x-4-x-3-x-x-x-x-x-x-x-x-|--------
-3-3-4-5------4-x-3-x-4-x-3-3-4-5------4-x-3-x-4-x-3-x-x-x-x-x-x-x-x-|--------
-1-1-2-3--0-0-2-x-1-x-2-x-1-1-2-3--0-0-2-x-1-x-2-x-1-0-0-0-0-0-0-0-0-|--------
---------------------------------------------------------------------|--------
Well

----------------------------
----------------------------
----------------------------
-76/7/8--7-7-6-8-6-9-------
-76/7/8--7-7-6-8-6-9-------
-54/5/6--5-5-4-6-4-7-------

[verse]


------------------------------|--------------------------------------
------------------------------|--------------------------------------
------------------------------|--------------------------------------
------------------------------|--------------------------------------
-----6-6---7---7---6-7--------|-----4-4---5---5---4-5----(two times)-
-7-6-----6---6---7------------|-5-4-----4---4---5--------------------


------------------------------------------------
------------------------------------------------
------------------------------------------------
------------------------------------------------
-----6-6---7---7---6-7-------6-6---7---7---6-7--
-7-6-----6---6---7-------7-6-----6---6---7------

------------------------------
------------------------------
------------------------------
-76/7/8--7-7-6-8-6-9---------
-76/7/8--7-7-6-8-6-9---------
-54/5/6--5-5-4-6-4-7---------

[verse2]

------------------------------|--------------------------------------
------------------------------|--------------------------------------
------------------------------|--------------------------------------
------------------------------|--------------------------------------
-----6-6---7---7---6-7--------|-----4-4---5---5---4-5----(two times)-
-7-6-----6---6---7------------|-5-4-----4---4---5--------------------


----------------------------------------------------------------------
----------------------------------------------------------------------
----------------------------------------------------------------------
-----------------------------------------10-9-8-----------------------
-----6-6---7---7---6-7-------6-6---7---7--------10-9-8-6--------------
-7-6-----6---6---7-------7-6-----6---6--7-----------------------------

-------------------------------------------------------------------------
-------------------------------------------------------------------------
---------6-----------------------6-----------------------6---------------
---------6-----------------------6-----------------------6---------------
-8-6-8-9---8-6-8-h9~~~~--8-6-8-9---8-6-8-h9~~~~--8-6-8-9---8-6-8-h9~~~~--
-------------------------------------------------------------------------

-------------------------------------------------
-------------------------------------------------
---------6-----------------------6---------------
---------6-----------------------6---------------
-8-6-8-9---8-6-8-h9~~~~--8-6-8-9---8-6-8-h9~~~~--
-------------------------------------------------

[verse]

-------------------------------------
-------------------------------------
-------------------------------------
---6---------6---------6--------(6)--
-7^-7^-6-7^(6)------7^-7^-6^-7(-)--
-------------------------------------

----------------------------
----------------------------
---------6------------------
---------6------------------
-8-6-8-9---8-6-8-h9~~~~-----
----------------------------

[verse]

Solo:
-5h6h7h8-5h6h7h8-5h6h7h8--5-7-h3-------------11h12h13-10h11h12-9h10p6
---------------------------------3-3-3/6-5----------------------------
----------------------------------------------------------------------
----------------------------------------------------------------------
----------------------------------------------------------------------
----------------------------------------------------------------------

-6/7-9^-8/10-12-10-9-6-8/13^~~~~------------------------------------
---------------------------------2-1-0-1---1-2-1/5^~-2-1-0-1h2/11^~-
------------------------------------------2-------------------------
--------------------------------------------------------------------
--------------------------------------------------------------------
--------------------------------------------------------------------

-----------------------/11--------4-6-----------------------------------
--------4h5h6h7^~-8~~------4-5-6-----4-2-2-2-2-2-0-2-0-2/8^--2-2-2-2-2-
--x-3-5---------------------------------1-1-1-1-1-------------1-1-1-1-1-
------------------------------------------------------------------------
------------------------------------------------------------------------
------------------------------------------------------------------------

--------------------------------------------------------------------
-1-3--2-2-2-2-2-0-2-0-2/8^--2-2-2-2-2-0-3-0-2-0-2-0-1-0-------------
-0-2--1-1-1-1-1-------------1-1-1-1-1-------------------------------
--------------------------------------------------------------------
--------------------------------------------------------------------
--------------------------------------------------------------------

-------------------------------|
-------------------------------|
-------------------------------|
-76/7/8--7-7-6-8-6-9----------|
-76/7/8--7-7-6-8-6-9----------|
-54/5/6--5-5-4-6-4-7----------|

[verse]

------------------------------||----------------------------------------
------------------------------||----------------------------------------
------------------------------||----------------------------------------
------------------------------||----------------------------------------
-----6-6---7---7---6-7--------||-----4-4---5---5---4-5----(two times)---
-7-6-----6---6---7------------||-5-4-----4---4---5----------------------


------------------------------|----------------------------------------
------------------------------|----------------------------------------
------------------------------|----------------------------------------
------------------------------|----------------------------------------
-----6-6---7---7---6-7--------|-----4-4---5---5---4-5----(two times)---
-7-6-----6---6---7------------|-5-4-----4---4---5----------------------


------------------------------|
------------------------------|
---------(two times)----------|
------------------------------|
-----6-6---7---7---6-7--------|
-7-6-----6---6---7------------|

Outro:
-------------------------------|------------------------------------------|---
-------------------------------|------------------------------------------|---
-------------------------------|------9-8------------------9-8------------|---
-x-x-x-x-x-x-x-x-x-x-x-x-x-x-x-|-7-6--7-6--9-8-7-6-5--7-6--7-6--9-8-7-6-5-|---
-x-x-x-x-x-x-x-x-x-x-x-x-x-x-x-|-5-4-------7-6-5-4-3--5-4-------7-6-5-4-3-|---
-0-0-0-0-0-0-0-0-0-0-0-0-0-0-0-|------------------------------------------|---

------------------------------------------|
------------------------------------------|
------9-8------------------9-8------------|
-7-6--7-6--9-8-7-6-5--7-6--7-6--9-8-7-6-5-|
-5-4-------7-6-5-4-3--5-4-------7-6-5-4-3-|
------------------------------------------|

-------------------------------------------------------------------------
-------------------------------------------------------------------------
-------------------------------------------------------------------------
-7-6-x-x-x-x-6-7-8-6-x-x-x-x-6-7-8-6-x-x-x-x-6-7-8-6-x-x-x-x-------4--5-6
-5-4-x-x-x-x-4-5-6-4-x-x-x-x-4-5-6-4-x-x-x-x-4-5-6-4-x-x-x-x-4-5-6---6---
-------------------------------------------------------------------------

------------------------------|
------------------------------|
------------------------------|
------------------------------|
-4-5-6-2-3-4-3-2-1-0-6--------|
---------------------4--------|




Ваше мнение



Капча