t. See http://www.olga.net/faq/ for more information. #
From: "Julio Oleas"
Subject: w/white_zombie/am_i_legend_intro.tab
Date: Sat, 05 Feb 2000 20:43:14 GMT
Author/Artist: White zombie (J)
Title: am i legend
Album: la sexorcisto
Transcribed by: EXORCISTA
Email: [email protected]
some guy send an e-mail asking if i knew somebody who tabbed
ami legend. here is the intro. ill tab the rest of the song later or
find it on some white zombie fan site.
please enjoy.
----3-------3---------2-----2---------------0-----------0----------3-----3----
------5-------5--5------3-----3---3---1-------1---1-------3---1------5-----5--
--------4-------4---------2-----2-------0-----------0-------0----------4------
--2-----------------0---------------------2-----2-----2----------2------------
------------------------------------3-----------------------------------------
------------------------------------------------------------------------------
-------2-------------------------------0-------|------------------------------
---5-----3---3---0-----0---------3-------3---3-|-----------------------5------
-4---------2-------2-----2---2-----0-------0---|--7---7---7---7---7------4----
-----0---------------2-----2---------2---------|---------------------------2--
---------------0---------------3---------------|5---5---5---5---5----0--------
-----------------------------------------------|------------------------------
play 2 times
-----------2-----3---2-3|---------------0-----0-----0-------------------------
-5-----------5-----5----|-----------------5-----5-----5---5----3---------5----
---4---4-------4--------|-----------------4-----4-----4----5-----5---5-----4--
-----2------------------|-----5---5---2-----2-----2----------5-----5---2------
---------0--------------|---5---5-----------------------3---------------------
------------------------|-3---------------------------------------------------
--------------------------------------------------0-----0---------0-----------
---5----------5-----3---------5-----5-----------------------------------------
-----4---4------5-----5---5-----4-----4---4---------9-----9---9-----7---7-----
-2-----2----------5-----5---------5-----5-------------9-----9---------7---7---
------------3---------------0-------------------7---------------5-------------
------------------------------------------------------------------------------
--------------------------------------------------3-2-------------------0-----
---------------------1-----1--------3-----3-----------------1-----1------1----
-7---6-----6-----6-----0-----0--0-----0-----0---0-------------0-----0------0--
-------6-6---6-6---------2-----2--------2-----2-----------------2-----2-------
---4---------------3--------------2-------------------0-2-3-------------------
------------------------------------------------------------------------------
-------------------------3-2-------------------0------------------------------
-3---3-----3-----3-----------------1-----1-------1---3---3-----0-----0-----5--
---0---0-----0-----0---0-------------0-----0-------0---0---0-----4-----4------
---------------2-----2-----------------2-----2---------------2-----2-----2----
---------2-------------------0-2-3--------------------------------------------
------------------------------------------------------------------------------
-----0-----------3------------3------------------------3-2------|---------0---
-------5---5------------5------------5----0-----0---------------|---5---------
-4-----------5-----5------5-----5-----------4-------4-----------|-----4-------
---2-----------5------------5------5----------4-----------------|-------2-----
---------3------------3-----------------2---------2-------------|-------------
-------------------------------------------------------------3-2|0------------
4
---------0--|-----------------------------------------------------------------
---5--------|-----------------------------------------------------------------
-4---4------|-----------------------------------------------------------------
-------2----|-----------------------------------------------------------------
------------|-----------------------------------------------------------------
------------|-----------------------------------------------------------------
times




Ваше мнение



Капча