-------------------------------------------------------------------------------
Wheatus
Teenage Dirtbag (Electric Guitar) v2.0
-------------------------------------------------------------------------------
Tabbed by: RaZoRb0iz
Email: [email protected]
Tuning: Standard tuning (E A D G B E)
By my hearing, this song is played by an electric guitar, a bass guitar and an
acoustic guitar. These tabs are only for the Electric Guitar. Even the Verse,
intro and pre-chorus chords should be played with a bass guitar, but these tabs
are for when you only have a electric guitar =)
I welcome comments, opinions, suggestions, observations, blah blah blah. :)
My e-mail address is there..right there...move your eye focus up abit...abit
more..yes!That's it! under the part with says Email =)
***Special thanks to Dela ( [email protected] ) from whose tabs I referred to
when I just couldn't figure out the chords.***
Version 2.0 -- Made quite a few changes designed to make the song easier to
play.If you don't like it played this way,gimme an e-mail and I'll send you
the previous version. 1st Febuary 2004
Version 1—-First version
Intro + Verse 1
E|----------------------------------------------|-----------------------------
B|----------------------------------------------|-----------------------------
G|----------------------------------------------|-----------------------------
D|----------------------------------------------|-----------------------------
A|----------------------------------------------|-----------------------------
E|-----0--0-------7--7--------0--0-------5--5---|-----------------------------
P.M. P.M. P.M. P.M. 5x
Pre-Chorus 1
E|--------------------------------------------|-------------------------------
B|--------------------------------------------|-------------------------------
G|--------------------------------------------|-------------------------------
D|--------------------------------------------|-------------------------------
A|--------------------------------------------|-------------------------------
E|-----9--9-------5--5-------7--7-------7--7--|-------------------------------
P.M. P.M. P.M. P.M.
Pre-Chorus 1 (con't.d)
E|--------------------------------------------|-------------------------------
B|--------------------------------------------|-------------------------------
G|--------------------------------------------|-------------------------------
D|--------------------------------------------|-------------------------------
A|--------------------------------------------|-------------------------------
E|---8-9--9-------5--5-------7--7-------7--7--|-------------------------------
P.M. P.M. P.M. P.M.
Chorus
E|------------------------------------------------------------
B|------------------------------------------------------------
G|--------2-2---4-4--------------------2-2---4-4--------------
D|--2-2---2-2---4-4--------------2-2---2-2---4-4--------------
A|--2-2---0-0---2-2-----11----6--2-2---0-0---2-2----11---6----
E|--0-0---------------9-----4----0-0--------------9----4------
E|--------------------------------------------------------------------------|
B|--------------------------------------------------------------------------|
G|-----------2-2---4-4-------------------2-2---4-4--------------------------|
D|-----2-2---2-2---4-4-------------2-2---2-2---4-4--------------------------|
A|-----2-2---0-0---2-2----11--6----2-2---0-0---2-2----11--6----7---9--------|
E|-----0-0--------------9---4------0-0--------------9---4----5---7----------|
Verse 2
E|----------------------------------------------|
B|----------------------------------------------|
G|----------------------------------------------|
D|----------------------------------------------|
A|----------------------------------------------|
E|-----0--0-------7--7--------0--0-------5--5---|
P.M. P.M. P.M. P.M. 5x
Pre-Chorus 2
E|--------------------------------------------|
B|--------------------------------------------|
G|--------------------------------------------|
D|--------------------------------------------|
A|--------------------------------------------|
E|-----9--9-------5--5-------7--7-------7--7--|
P.M. P.M. P.M. P.M.
Pre-Chorus 2 (con't.d)
E|--------------------------------------------|
B|--------------------------------------------|
G|--------------------------------------------|
D|--------------------------------------------|
A|--------------------------------------------|
E|---8-9--9-------5--5-------7--7-------7--7--|
P.M. P.M. P.M. P.M.
Chorus
E|------------------------------------------------------------
B|------------------------------------------------------------
G|--------2-2---4-4--------------------2-2---4-4--------------
D|--2-2---2-2---4-4--------------2-2---2-2---4-4--------------
A|--2-2---0-0---2-2-----11----6--2-2---0-0---2-2----11---6----
E|--0-0---------------9-----4----0-0--------------9----4------
E|--------------------------------------------------------------------------|
B|--------------------------------------------------------------------------|
G|-----------2-2---4-4-------------------2-2---4-4--------------------------|
D|-----2-2---2-2---4-4-------------2-2---2-2---4-4--------------------------|
A|-----2-2---0-0---2-2----11--6----2-2---0-0---2-2----11--6----7---9--------|
E|-----0-0--------------9---4------0-0--------------9---4----5---7----------|
Bridge
E|----------0-----------0-----------0------------------------|
B|----------0-----------0-----------0------------------------|
G|----------2-----------2-----------2------------------------|
D|--2-2-----2---2-2-----2---2-2-----2------------------------|
A|--2-2--2--0---2-2--2--0---2-2--2--0-----11--6---7---9------|
E|--0-0---------0-0---------0-0---------9---4---5---7--------|
2X
No singing part after Bridge + Verse 3
E|----------------------------------------------|
B|----------------------------------------------|
G|----------------------------------------------|
D|----------------------------------------------|
A|----------------2--2-------------------0--0---|
E|-----0--0-------------------0--0--------------|
P.M. P.M. P.M. P.M. 5x
Pre-Chorus 3
E|--------------------------------------------|
B|--------------------------------------------|
G|--------------------------------------------|
D|--------------------------------------------|
A|------4---4-----0--0-------2--2-------2--2--|
E|--------------------------------------------|
P.M. P.M. P.M. P.M. 2x
Girl talking part
E|---------------------------------------|-------------------------------
B|---------------------------------------|-------------------------------
G|---------------------------------------|-------------------------------
D|----------2-2-2-2--4-4-4-4-------------|-------------------------------
A|-2-2-2-2--0-0-0-0--2-2-2-2---11---6----|---11----6---7---9-------------
E|-0-0-0-0-------------------9----4------|-9-----4---5---7---------------
P.M._______ 3x__(softly)______________| (Gradually getting louder)

Last bridge
E|----------0-----------0-----------0------------------------|
B|----------0-----------0-----------0------------------------|
G|----------2-----------2-----------2------------------------|
D|--2-2-----2---2-2-----2---2-2-----2------------------------|
A|--2-2--2--0---2-2--2--0---2-2--2--0----11--6---7—--9-------|
E|--0-0---------0-0---------0-0--------9---4---5---7---------|
2X
E|------------------------------------------------------------------------0-|
B|------------------------------------------------------------------------0-|
G|-----------4-4-------------2-2-2-2------------4-4-----------------------1-|
D|-2-2-x-x-x-4-4-x-x-2-2-x-x-2-2-2-2--2-2-x-x-x-4-4-x-x---2-2-x-----------2-|
A|-2-2-x-x-x-2-2-x-x-2-2-x-x-0-0-x-x--2-2-x-x-x-2-2-x-x-x-2-2-x-----------2-|
E|-0-0-x-x-------x-x-0-0-x-x----------0-0-x-x-------x-x-x-0-0-x-5-4-2h4-2-0-|
Ending
| / slide up
| slide down
| h hammer-on
| p pull-off
| ~ vibrato
| + harmonic
| x Mute note
===============================================================================




Ваше мнение



Капча