Artist :: Wheatus
Song :: Sunshine
Tabbed by :: ChRiS ([email protected])
URL :: http://www.insanechris.cjb.net

This is a great song, my favourite song on the album, here
is the bass tab, Enjoy.

Intro
G|----------------------------------------------------------
D|----------------------------------------------------------
A|--00--00--00------55--00--00------55--00------------------
E|--------------00--------------00--------------------------

Verse

G|----------------------------------------------------------
D|----------------------------------------------------------
A|--00------55--00--00------55--00--------------------------
E|------00--------------00----------------------------------

Chorus

G|----------------------------------------------------------
D|----------------------------------------------------------
A|--------------------------------------------00--00--55--77
E|--2222/5555--2222/5555--2222/5555/77777777----------------

G|----------------------------------------------------------
D|----------------------------------------------------------
A|--99--55--99--5555--00--00--55--77--99--55--99--5555-00---
E|----------------------------------------------------------

G|----------------------------------------------------------
D|----------------------------------------------------------
A|--00--00--00--00------------------------------------------
E|----------------------------------------------------------

Order of play:

Intro
Verse
Chorus
Verse
Chorus

Any corrections email me at [email protected] :-D




Ваше мнение



Капча