KEY: pm=palm mute
Intro
pm.......................................
|--------------------------------------------------|
|--------------------------------------------------|
|--------------------------------------------------|
|---7--7--7--7--7--7---4--4--4--4--2--2--2--2--0---|Repeat??
|---5--5--5--5--5--5-0-2--2--2--2--0--0--0--0--0---|
|--------------------------------------------------|
Chorus
|--2---2---2--2--2--------3----3--3--3--|
|--3---3---3--3--3--------3----3--3--3--|
|--2---2---2--2--2--2--2--0----0--0--0--|
|--0---0---0--0--0--2--2--0----0--0--0--| Repeat??
|-------------------0--0----------------|
|-------------------0--0--3----3--3--3--|
|--2---2--2--2--2--2--2---------------------------|
|--3---3--3--3--3--3--3---------------------------|
|--2---2--2--2--2--2--2---------------------------|
|--0---0--0--0--0--0--0---------------------------|
|-------------------------------------------------|
|----------------------------1---2--------3---4---|

Enjoy tabed by a 14yr old e-mail me if any probs thanks :-)
[email protected]




Ваше мнение



Капча