From: Andrei Gheorghe
Hello out there!
I found the crd for Wet-Wet-Wet's "Love is all around" at nevada.
Well, I think this "tab" will help you picking instead of strumming. It
sounds really cool. I hope I'll have the time later to post the guitar solo
(also sounds cool).
Picking is easy: for every chord pick the and then the E, B, G
chords.
----chords---------------------------------------------
D : xx232
Em: 22000
G : 20003
A : x(0)2220
where chord is what i've called the chord
--------------------------------------------------------
Repeat on each verse, like this:
D Em G A
-----2--------- ---0-------- --3-------- ---0---
---------3----- -------0---- ----0------ -----2-
------------2-- ----------0- ---------0- -------
--0------------ ------------ ----------- -------
--------------- ------------ ----------- -0-----
--------------- -0--------- -3---------- -------
I feel it in my fin-gers, I feel it in m-y
D Em G A
-----2--------- ---0-------- --3-------- ---0---
---------3----- -------0---- ----0------ -----2-
------------2-- ----------0- ---------0- -------
--0------------ ------------ ----------- -------
--------------- ------------ ----------- -0-----
--------------- -0--------- -3---------- -------
toes
Well, love is all around me, and so the feeling grows
It's written on the wind, it's everywhere I go
So if you really love me, come on and let it show
Chorus.
(I pick the chords in random order, but you can strum as well)
G Em
You know I love you, I always will
G D
My mind's made up by the way that I feel
G Em
There's no beginning, there'll be no end
(Em) A




Ваше мнение



Капча