Artist: Westlife
Song: Unbreakable
Tabbed by: Ernesto J. Quezada
e-mail: [email protected]
This is my first time doing this so I hope I did it right.
Please feel free to send me any comments about this song.
If you find a better way to play it let me know. The lyrics
are just to let you know where you are in the song.
They may not be exactly above where the chord starts.
Took my hand...
G G
e|------------3--------|-----------3--------|
B|---------3-----3-----|--------3-----3-----|
G|------0-----------0--|-----0-----------0--|
D|---------------------|--------------------|
A|---------------------|--------------------|
E|---3-----------------|--3-----------------|
G G Em7 Em7
e|-------3-----|-------3-----|-------3-----|-------3-----|
B|-----3---3---|-----3---3---|-----3---3---|-----3---3---|
G|---0-------0-|---0-------0-|---0-------0-|---0-------0-|
D|-------------|-------------|-------------|-------------|
A|-------------|-------------|-------------|-------------|
E|-3-----------|-3-----------|-0-----------|-0-----------|
Csus2 Csus2 Am7 D
e|-------3-----|-------3-----|-------3-----|-------2-----|
B|-----3---3---|-----3---3---|-----1---1---|-----3---3---|
G|---0-------0-|---0-------0-|---0-------0-|---2-------2-|
D|-------------|-------------|-------------|-0-----------|
A|-3-----------|-3-----------|-0-----------|-------------|
E|-------------|-------------|-------------|-------------|
By my side...
G G Em7 Em7
e|-------3-----|-------3-----|-------3-----|-------3-----|
B|-----3---3---|-----3---3---|-----3---3---|-----3---3---|
G|---0-------0-|---0-------0-|---0-------0-|---0-------0-|
D|-------------|-------------|-------------|-------------|
A|-------------|-------------|-------------|-------------|
E|-3-----------|-3-----------|-0-----------|-0-----------|
Csus2 Csus2 Am7 D
e|-------3-----|-------3-----|-------3-----|-------2-----|
B|-----3---3---|-----3---3---|-----1---1---|-----3---3---|
G|---0-------0-|---0-------0-|---0-------0-|---2-------2-|
D|-------------|-------------|-------------|-0-----------|
A|-3-----------|-3-----------|-0-----------|-------------|
E|-------------|-------------|-------------|-------------|
BRIDGE:
Swept away...
Am7 G Csus2 G
e|-------3-----|-------3-----|-------3-----|-------3-----|
B|-----1---1---|-----3---3---|-----3---3---|-----3---3---|
G|---0-------0-|---0-------0-|---0-------0-|---0-------0-|
D|-------------|-------------|-------------|-------------|
A|-0-----------|-2-----------|-3-----------|-2-----------|
E|-------------|-------------|-------------|-------------|
And whenever you smile...
Am7 G Csus2 Csus2
e|-------3-----|-------3-----|-------3-----|-------3-----|
B|-----1---1---|-----3---3---|-----3---3---|-----3---3---|
G|---0-------0-|---0-------0-|---0-------0-|---0-------0-|
D|-------------|-------------|-------------|-------------|
A|-0-----------|-2-----------|-3-----------|-3-----------|
E|-------------|-------------|-------------|-------------|
Dsus4 D
e|------------3---------2--|
B|---------3-----3---------|
G|------2-----------2------|
D|---0---------------------|
A|-------------------------|
E|-------------------------|
BEGIN CHORUS:
This love is unbreakable...
G G Em7 Em7
e|-------3-----|-------3-----|-------3-----|-------3-----|
B|-----3---3---|-----3---3---|-----3---3---|-----3---3---|
G|---0-------0-|---0-------0-|---0-------0-|---0-------0-|
D|-------------|-------------|-------------|-------------|
A|-------------|-------------|-------------|-------------|
E|-3-----------|-3-----------|-0-----------|-0-----------|
Csus2 Csus2 Dsus4 D
e|-------3-----|-------3-----|-------3-----|-------2-----|
B|-----3---3---|-----3---3---|-----3---3---|-----3---3---|
G|---0-------0-|---0-------0-|---2-------2-|---2-------2-|
D|-------------|-------------|-0-----------|-0-----------|
A|-3-----------|-3-----------|-------------|-------------|
E|-------------|-------------|-------------|-------------|
This love is untouchable...
G G Em7 Em7
e|-------3-----|-------3-----|-------3-----|-------3-----|
B|-----3---3---|-----3---3---|-----3---3---|-----3---3---|
G|---0-------0-|---0-------0-|---0-------0-|---0-------0-|
D|-------------|-------------|-------------|-------------|
A|-------------|-------------|-------------|-------------|
E|-3-----------|-3-----------|-0-----------|-0-----------|
Csus2 G Am7 Dsus4
e|-------3-----|-------3-----|-------3-----|-------3-----|
B|-----3---3---|-----3---3---|-----1---1---|-----3---3---|
G|---0-------0-|---0-------0-|---0-------0-|---2-------2-|
D|-------------|-------------|-------------|-0-----------|
A|-3-----------|-2-----------|-0-----------|-------------|
E|-------------|-------------|-------------|-------------|
E
e|------------0--------|
B|---------0-----0-----|
G|------0-----------0--|
D|---2-----------------|
A|---------------------|
E|---------------------|
END CHORUS
Shared the laughter...
G G Em7 Em7
e|-------3-----|-------3-----|-------3-----|-------3-----|
B|-----3---3---|-----3---3---|-----3---3---|-----3---3---|
G|---0-------0-|---0-------0-|---0-------0-|---0-------0-|
D|-------------|-------------|-------------|-------------|
A|-------------|-------------|-------------|-------------|
E|-3-----------|-3-----------|-0-----------|-0-----------|
Csus2 Csus2 Am7 D
e|-------3-----|-------3-----|-------3-----|-------2-----|
B|-----3---3---|-----3---3---|-----1---1---|-----3---3---|
G|---0-------0-|---0-------0-|---0-------0-|---2-------2-|
D|-------------|-------------|-------------|-0-----------|
A|-3-----------|-3-----------|-0-----------|-------------|
E|-------------|-------------|-------------|-------------|
Caused together...
G G Em7 Em7
e|-------3-----|-------3-----|-------3-----|-------3-----|
B|-----3---3---|-----3---3---|-----3---3---|-----3---3---|
G|---0-------0-|---0-------0-|---0-------0-|---0-------0-|
D|-------------|-------------|-------------|-------------|
A|-------------|-------------|-------------|-------------|
E|-3-----------|-3-----------|-0-----------|-0-----------|
Csus2 Csus2 Am7 D
e|-------3-----|-------3-----|-------3-----|-------2-----|
B|-----3---3---|-----3---3---|-----1---1---|-----3---3---|
G|---0-------0-|---0-------0-|---0-------0-|---2-------2-|
D|-------------|-------------|-------------|-0-----------|
A|-3-----------|-3-----------|-0-----------|-------------|
E|-------------|-------------|-------------|-------------|
BRINDGE:
I've been touched by the hands of an angel...
Am7 G Csus2 G
e|-------3-----|-------3-----|-------3-----|-------3-----|
B|-----1---1---|-----3---3---|-----3---3---|-----3---3---|
G|---0-------0-|---0-------0-|---0-------0-|---0-------0-|
D|-------------|-------------|-------------|-------------|
A|-0-----------|-2-----------|-3-----------|-2-----------|
E|-------------|-------------|-------------|-------------|
And whenever you smile...
Am7 G Csus2 D
e|-------3-----|-------3-----|-------3-----|-------2-----|
B|-----1---1---|-----3---3---|-----3---3---|-----3---3---|
G|---0-------0-|---0-------0-|---0-------0-|---2-------2-|
D|-------------|-------------|-------------|-0-----------|
A|-0-----------|-2-----------|-3-----------|-------------|
E|-------------|-------------|-------------|-------------|
BEGIN CHORUS:
This love is unbreakable...
G G Em7 Em7
e|-------3-----|-------3-----|-------3-----|-------3-----|
B|-----3---3---|-----3---3---|-----3---3---|-----3---3---|
G|---0-------0-|---0-------0-|---0-------0-|---0-------0-|
D|-------------|-------------|-------------|-------------|
A|-------------|-------------|-------------|-------------|
E|-3-----------|-3-----------|-0-----------|-0-----------|
Csus2 Csus2 Dsus4 D
e|-------3-----|-------3-----|-------3-----|-------2-----|
B|-----3---3---|-----3---3---|-----3---3---|-----3---3---|
G|---0-------0-|---0-------0-|---2-------2-|---2-------2-|
D|-------------|-------------|-0-----------|-0-----------|
A|-3-----------|-3-----------|-------------|-------------|
E|-------------|-------------|-------------|-------------|
This love is untouchable...
G G Em7 Em7
e|-------3-----|-------3-----|-------3-----|-------3-----|
B|-----3---3---|-----3---3---|-----3---3---|-----3---3---|
G|---0-------0-|---0-------0-|---0-------0-|---0-------0-|
D|-------------|-------------|-------------|-------------|
A|-------------|-------------|-------------|-------------|
E|-3-----------|-3-----------|-0-----------|-0-----------|
Csus2 G Am7 Dsus4
e|-------3-----|-------3-----|-------3-----|-------3-----|
B|-----3---3---|-----3---3---|-----1---1---|-----3---3---|
G|---0-------0-|---0-------0-|---0-------0-|---2-------2-|
D|-------------|-------------|-------------|-0-----------|
A|-3-----------|-2-----------|-0-----------|-------------|
E|-------------|-------------|-------------|-------------|
END CHORUS
This love is unbreakable, Through fire and flame...
F F C C
e|-------1-----|-------1-----|-------0-----|-------0-----|
B|-----1---1---|-----1---1---|-----1---1---|-----1---1---|
G|---2-------2-|---2-------2-|---0-------0-|---0-------0-|
D|-3-----------|-3-----------|-------------|-------------|
A|-------------|-------------|-3-----------|-3-----------|
E|-------------|-------------|-------------|-------------|
Am7 Am7 Dsus4 D
e|-------0-----|---------0-------|-------3-------2--|
B|-----1---1---|------1-----1----|-----3---3--------|
G|---0-------0-|---0-----------0-|---2-------2------|
D|-------------|-----------------|-0----------------|
A|-0-----------|-0---------------|------------------|
E|-------------|-----------------|------------------|
BEGIN CHORUS:
This love is unbreakable...
A A F#m F#m
e|-------0-----|-------0-----|-------2-----|-------2-----|
B|-----2---2---|-----2---2---|-----2---2---|-----2---2---|
G|---2-------2-|---2-------2-|---2-------2-|---2-------2-|
D|-------------|-------------|-4-----------|-4-----------|
A|-0-----------|-0-----------|-------------|-------------|
E|-------------|-------------|-------------|-------------|
D D Esus E
e|-------2-----|-------2-----|-------0-----|-------0-----|
B|-----3---3---|-----3---3---|-----0---0---|-----0---0---|
G|---2-------2-|---2-------2-|---2-------2-|---1-------1-|
D|-0-----------|-0-----------|-------------|-2-----------|
A|-------------|-------------|-2-----------|-------------|
E|-------------|-------------|-------------|-------------|
This love is untouchable...
A A F#m F#m
e|-------0-----|-------0-----|-------2-----|-------2-----|
B|-----2---2---|-----2---2---|-----2---2---|-----2---2---|
G|---2-------2-|---2-------2-|---2-------2-|---2-------2-|
D|-------------|-------------|-4-----------|-4-----------|
A|-0-----------|-0-----------|-------------|-------------|
E|-------------|-------------|-------------|-------------|
D F#m7 Esus E
e|-------2-----|-------------|-------0-----|-------0-----|
B|-----3---3---|-------2-----|-----0---0---|-----0---0---|
G|---2-------2-|-----2---2---|---2-------2-|---1-------1-|
D|-0-----------|---2-------2-|-------------|-2-----------|
A|-------------|-4-----------|-2-----------|-------------|
E|-------------|-------------|-------------|-------------|
D F#m7 Esus E
e|-------2-----|-------------|-------0-----------|
B|-----3---3---|-------2-----|-----0---0---------|
G|---2-------2-|-----2---2---|---2-------2---1---|
D|-0-----------|---2-------2-|-------------------|
A|-------------|-4-----------|-2-----------------|
E|-------------|-------------|-------------------|
END CHORUS
ENDING:
This love is unbreakable
C? G E7 A
e|------------5-------------------------0----0---|
B|---------5-----5------------3--------------2---|
G|------5-----------5------0--------1--------2---|
D|-------------------------------------------2---|
A|---3------------------2--------2-----------0---|
E|-----------------------------------------------|
Send comments, questions, corrections to [email protected]
Ernesto J. Quezada




Ваше мнение



Капча