Westlife, My Love 2.
Tabbed by YiHao, [email protected]

Westlife, My Love.
Tabbed by YiHao, [email protected]
--With the help of my friend, I hope there are finally no more mistakes!
(Intro)
Dm Am/C G G
E|--1--------1--|--------------|--------------|--------------|
B|--------3-----|--1-----------|--3-----------|--3-----1--0--|
G|-----2--------|--------2-----|--0-----------|--0-----------|
D|--0-----------|--------------|--0-----------|--0-----------|
A|--------------|--3-----------|--------------|--------------|
E|--------------|--------------|--3-----------|--3-----------|
F C
E|--------------|--------------|--0-----------|
B|--------------|--------0-----|--1-----------|
G|--2-----------|--2-----------|--0-----------|
D|-----------3--|--------------|--2-----------|
A|--------3-----|--------------|--3-----------|
E|--1-----------|--------------|--0-----------|
(Verse 1)
C
An empty street
G
An empty house
Em Am
A hole inside my heart
F
I'm all alone
F G
The rooms are getting smaller
C
I wonder how
G
I wonder why
Em Am
I wonder where they are
F
The days we had
F F#7 G
The songs we sang together (oh yeah)
F G
And oh my love
C Am
I'm holding on forever
F Dm G
Reaching for a love that seems so far.
(Chorus)
F C
So I say a little prayer
F C
And hope my dreams will take me there
F
Where the skies are blue
C Am D G
To see you once again my love
F C
Overseas from coast to coast
F C
To find the place I love the most
F
Where the fields are green
C Am D G
To see you once again
C
My love
(Verse 2)
C
I try to read
G
I go to work
Em Am
I'm laughing with my friends
F F G
But I can't stop to keep myself from thinking (oh no)
C
I wonder how
G
I wonder why
Em Am
I wonder where they are
F
The days we had
F F#7 G
The songs we sang together (oh yeah)
F G
And oh my love
C Am
I'm holding on forever
F Dm G
Reaching for a love that seems so far.
(Chorus)
F C
So I say a little prayer
F C
And hope my dreams will take me there
F
Where the skies are blue
C Am D G
To see you once again my love
F C
Overseas from coast to coast
F C
To find the place I love the most
F
Where the fields are green
C Am D
To see you once again
(Bridge 1)
E Am
To hold you in my arms
D G
To promise you my love
E Am
To tell you from the heart
D G
You're all I'm thinking of
(Solo)
C G Em Am
E|-------------------------------------------|
B|-------------------------------------------|
G|----4-4/5-5-5---5-5/7-7-7---4--4-4-5-4/5---|
D|--7----------------------------------------|
A|-------------------------------------------|
E|-------------------------------------------|
(Bridge 2)
F Dm G
I'm reaching for a love that seems so far.
(Chorus)
G D
So I say a little prayer
G D
And hope my dreams will take me there
G
Where the skies are blue
D Bm E A
To see you once again my love
G D
Overseas from coast to coast
G D
To find the place I love the most
G
Where the fields are green
D Bm E A
To see you once again

My love
G D
Say a little prayer (it must be love)
G D
My dreams will take me there
G
Where the skies are blue (woah yeah)
D Bm E A
To see you once again (oh my love)
G D
Overseas from coast to coast
G D
To find the place I love the most
G
Where the fields are green
D Bm E A
To see you once again
D
My love




Ваше мнение



Капча