Flying Without Wings
Westlife
D Dsus2/F# E Esus4 Fm
e |---2---|---2---| |---0---|---0---|---2---|
B |---3---|---3---| |---0---|---0---|---2---|
G |---2---|---2---| |---1---|---2---|---2---|
D |---0---|---4---| |---2---|---2---|---4---|
A |---0---|---0---| |---2---|---2---|---4---|
E |---x---|---x---| |---0---|---0---|---2---|
A Asus2 Asus4
e |---0---|---0---|---0---|
B |---2---|---0---|---3---|
G |---2---|---2---|---2---|
D |---2---|---2---|---2---|
A |---0---|---0---|---0---|
E |---0---|---0---|---0---|
Verse:
Everybody's looking for that
e|------0---------|------0---------|------0---------|------0---------|
B|0-----0---------|0-----0---------|0-----0---------|0-----0---------|
G|--2-------------|--2-------------|--2-------------|--2-------------|
D|----2-----------|----2-----------|4---4-----------|4---4-----------|
A|0---------------|0---------------|4---------------|4---------------|
E|----------------|----------------|----------------|----------------|
....somethings... You find it...
e|0-----2---------|2-----0---------|------------0---|----------------|
B|--3---3---------|--3-------------|------0-------0-|----------------|
G|----2-----------|----2-----------|------1---1-----|----------------|
D|0-----0---------|0-----0---------|----2-----------|----------------|
A|----------------|----------------|--2-------------|----------------|
E|----------------|----------------|0---------------|----------------|
....places... Some find it...
e|------0---------|------0---------|------0---------|------0---------|
B|0-----0---------|0-----0---------|0-----0---------|0-----0---------|
G|--2-------------|--2-------------|--2-------------|--2-------------|
D|----2-----------|----2-----------|4---4-----------|4---4-----------|
A|0---------------|0---------------|4---------------|4---------------|
E|----------------|----------------|----------------|----------------|
....their children... Who deny the...
e|0-----2---------|------0---------|------0-------0-|----------------|
B|--3---3---------|------0---------|0-----0-----0---|----------------|
G|----2-----------|------1---------|--2-------2-----|----------------|
D|0-----0---------|----2-----------|----2-----------|----------------|
A|----------------|--2-------------|0---------------|----------------|
E|----------------|0---------------|----------------|----------------|
....bring... Some find it...
e|------0---------|------0---------|------0---------|------0---------|
B|0-----0---------|0-----0---------|0-----0---------|0-----0---------|
G|--2-------------|--2-------------|--2-------------|--2-------------|
D|----2-----------|----2-----------|4---4-----------|4---4-----------|
A|0---------------|0---------------|4---------------|4---------------|
E|----------------|----------------|----------------|----------------|
....morning... You find it...
e|0-----2---------|2-----0---------|------------0---|----------------|
B|--3---3---------|--3-------------|------0-------0-|----------------|
G|----2-----------|----2-----------|------1---1-----|----------------|
D|0-----0---------|0-----0---------|----2-----------|----------------|
A|----------------|----------------|--2-------------|----------------|
E|----------------|----------------|0---------------|----------------|
....others... You find it...
e|------0---------|------0---------|------0---------|------0---------|
B|0-----0---------|0-----0---------|0-----0---------|0-----0---------|
G|--2-------------|--2-------------|--2-------------|--2-------------|
D|----2-----------|----2-----------|4---4-----------|4---4-----------|
A|0---------------|0---------------|4---------------|4---------------|
E|----------------|----------------|----------------|----------------|
....friendship... And when you...
e|0-----2---------|------0---------|------0---------|------0---------|
B|--3---3---------|------0---------|0-----0---------|0-----0---------|
G|----2-----------|------1---------|--2-------------|--2-------------|
D|0-----0---------|----2-----------|----2-----------|----2-----------|
A|----------------|--2-------------|0---------------|0---------------|
E|----------------|0---------------|----------------|----------------|
....means...
* Chorus:
D E
So impossible as it may seem
Fm E A
You've got to fight for every dream
D Dm
'Cos who's to know which one you let go
Esus4 (Dsus2/F#) E
Would have made you complete
A (Asus4 A)
Well for me it's waking up beside you
Fm
To watch the sunrise on your face
D
To know that I can say I love you
Esus4 (Dsus2/F#) E
In any given time or place
A (Asus4 A)
It's little things that only I know
Fm
Those are the things that make you mine
D
And it's like flying without wings
E
'Cos you're my special thing
A
I'm flying without wings
D
And you're the place my life begins
E
And you'll be where it ends
D
I'm flying without wings
E
And that's the joy you bring
Asus2
I'm flying without wings
* Actually, the chorus and the next part should be plucking,
but it is too difficult to figure out. So, strum the chords.
I'm Daniel Lee, 17/m
>From Malaysia.
email me at: [email protected]
Also try: Radio - The Corrs
Tabbed by Daniel.




Ваше мнение



Капча