dont let me go
westlife
tabbed by: mark lavalle
[email protected]

standard tuning

intro: verses 1,2 & chorus
|-22--222--22--222--33--333------------|
|-33--333--22--222--33--333--22--222---|
|-22--222--22--222-----------22--222---|
|----------------------------22--222---|
|-------------------22--222------------|
|-------------------33--333------------|
^ ^ ^ ^ ^ ^ ^ ^

pre-chorus & bridge
|-----------33--333-----------33--333-|
|-----------33--333-----------33--333-|
|-------------------------------------|
|-22--222------------22--222----------|
|-22--222---22--222--22--222--22--222-|
|-----------33--333-----------33--333-|
^ ^ ^ ^ ^ ^ ^




Ваше мнение



Капча