|-----------------------------------------------------------------|
|Werid Al Yankovic - Smells like Nirvana - http://www.weirdal.com |
|-----------------------------------------------------------------|

e|------------------------------------------|
B|------------------------------------------|
G|----------333---------------444-----------|Repeat ?x
D|-333-xxxx-333--xx--444-xxxx-444-----------|
A|-333-xxxx-111--xx--444-xxxx-222-----------|
E|-111-xxxx------xx--222-xxxx---------------|

e|----1-------------------------------------|
B|--1---------------------------------------|
G|------------------------------------------|
D|------------------------------------------|
A|------------------------------------------|
E|------------------------------------------|

TAB FOR PRE-CHORUS:
E|----------------------------------|
B|-----6-------6-------6-------6----|
G|-5-5---5-5-5---5-5-5---5-5-5---5--|
D|----------------------------------|
A|----------------------------------|
E|----------------------------------|
Play pre Chorus(above) 4 times

|------------------------|
|Chris McHugh |
[email protected] |
|------------------------|




Ваше мнение



Капча