It's All About The Pentiums

E tuning (standard)

Intro
e-----------------------|-------------------
b-----------------------|-------------------
g-----------------------|-------------------
D--4--444---2-4---44/8--|-5-4-3-------------
A--4--444---2-4---44/8--|-------5-4-3-------
E--2--222---0-2---22/6--|-------------5-----

Verse
e-----------------------|-------------------
b-----------------------|-------------------
g-----------------------|-------------------
D--4--444---2-4---44/8--|--5--4--3--2-------
A--4--444---2-4---44/8--|--5--4--3--2-------
E--2--222---0-2---22/6--|--3--2--1--0-------

Chorus
e-------------|-------------|--------------------
b-------------|-------------|--------------------
g-------------|-------------|--------------------
D---------3-4-|-5-5---------|-4--444--2-4--44/8--
A---3-4-5-----|-----5-4-3---|-4--444--2-4--44/8--
E-5-----------|-----------3-|-2--222--0-2--22/6--




Ваше мнение



Капча