Date: Tue, 20 Jan 1998 15:35:57 -0700 (MST)
From: Kim Duong
Subject: CRD: You Gave Your Love To Me Softly by WEEZER (fwd)
Song:You Gave Your Love To Me Softly
Band:WEEZER
Transcribed:Kim Duong
I'm surprised that no has done this song. It's kind of old, but it's one
of my favorite Weezer songs. This song comes of the Angus soundtrack.
Tuning:1/2 step down
Figure1.
e-------------------------------I
B-------------------------------I
G-------------------------------I
D---4--4--4--4--4--4--4--4--4---I
A---4--4--4--4--4--4--4--4--4---I
E---2--2--2--0--2--0--2--0--2---I
Verse#1:
A B5 F#5
You gave your love to me softly
D5 B5 Fig.1
I heard you heart beating true
D5 B5 F#5 A5 D5
Still you Bijon lingers on and on and on
A B5 A
You gave your love to me softly
Verse#2:
D5 B5 Fig.1
When I'm feeling blue and lonely
D5 B5 Fig.1
All I have to do is think of you
D5 B5
We had just one night
F#5 A5 D5
But it lingers on and on and on
A B5 A
You gave your love to me softly
Chorus:
D5 A5
La, la, la you sang to me
D5 A5 E5
Baby don't you cry
D5 A5
Put your arms around me child
C#m B5 A5
And stay with me tonight
Solo:
e-----------2-----------------------------2-----------------
B---2-----5---0-----2--0-0--------2-----5---0-----2--0-0----
G--------------------------2-----------------------------2--
D-----------------------------------------------------------
A-----------------------------------------------------------
E-----------------------------------------------------------
e-----------2---------------------4-------------------------
B--2------5---0------2--0---0-2-4---------------------------
G-------------------------2---------------------------------
D-----------------------------------------------------------
A-----------------------------------------------------------
E-----------------------------------------------------------
A B5 A
You gave your love to me softly
Chorus:
A5 G#5 E5
La, la, la
A5 G#5 E5
La, la, la
A5 G#5 E5 D5 C#m B5 A5
La, la, la, la, la, la, la

===============================================================================
Correction, comments, questions?
Kim Duong
[email protected]
[email protected]==============




Ваше мнение



Капча