t. See http://www.olga.net/faq/ for more information. #
From: Roreo Gillick
Subject: w/weezer/you_gave_your_love.crd
Date: Sun, 26 Dec 1999 05:14:42 0100
Hey, folks. This is your pal Rory Gillick. Well, it's
Christmas. I got a new amp from jolly ol' Santa, and I
decided to give a lil' something back to the OLGA comm-
unity, which I love so dearly. Here's my personal favorite (and of course all
from my own work)
interpretation of a little Weezer tune they call "You Gave Your Love to Me
Softly". You can find it on the soundtrack to the movie
"Angus." Enjoy. Merry Christmas! If you feel the need to rip me off,
just drop me a line at [email protected]
g'bye
oh, by the way...use power chords while playing my version
use standard tuning
(riff)
e----------------------------------------
B----------------------------------------
G----------------------------------------
D---4--4--4--4--4--4--4--4--4--4--4--4--4
A---4--4--4--4--4--4--4--4--4--4--4--4--4
E---2--2--0--2--2--0--2--0--2--0--2--0--2
Verse 1:
A B F#
D B (riff)
D B F# E D
A B A
Verse 2: as Verse 1
Chorus:
D A
La, la, la ......
D A E
D A
F# E A
solo:
e-----------2-----------------------------2-------------
B---2-----5---0-0----2-----------2-----5---0-0--2-----0-
G-----------------------2-1------------------------2--1-
D---------------------------4---------------------------
A-------------------------------------------------------
E-------------------------------------------------------
e-----------2----------------------------5--------------
B--2------5---0--0----2-----------2---5-----------------
G-------------------------2--1-2------------------------
D-------------------------------------------------------
A-------------------------------------------------------
E-------------------------------------------------------
D B A
You gave your love to me softly
Chorus:
F# E A
La, la, la
F# E A
La, la, la
F# E A D F# E A
La, la, la, la, la, la, la
===============================================================================




Ваше мнение



Капча