verse
E G# A B
e--------------------------------------
B--------------------------------------
G--------------------------------------
D--2-2-2-2--6-6-6-6--7-7-7-7--9-9-9-9--
A--2-2-2-2--6-6-6-6--7-7-7-7--9-9-9-9--
E--0-0-0-0--4-4-4-4--5-5-5-5--7-7-7-7--

chorus
E C# A B
e----------------------
B----------------------
G--9-9--6-6------------
D--9-9--6-6--7-7--9-9--
A--7-7--4-4--7-7--9-9--
E------------5-5--7-7--




Ваше мнение



Капча