The F^F#/Bb^B move type 1...
Used in the intro, and sometimes in choruses.
e------------------------------------
B------------------------------------
G------------------------------------
D-------------------3--3--4--4--4----
A---3--3--3--4--4---1--1--1--2--2----
E---1--1--2--2--2--------------------
The F^F#/Bb^B move type 2
Used in the choruses sometimes. (doubles lead)
e------------------------------------
B------------------------------------
G------------------------------------
D---6--5--1--4--4---3--3--4--4--4----
A---3--3--3--4--4---1--1--1--2--2----
E---1--1--2--2--2--------------------
VERSES
Bbm F# Ebm B D
e--1----2----6----7---x---------------
B--2----2----7----7---x---------------
G--3----3----8----8---7---------------
D--3----4----8----9---7---------------
A--1----4----6----9---5---------------
E--x----2----x----7---x---------------
-------------------------------------
THE SONG |
-------------------------------------
(some fuzz and amp noise...)
F^F#
Bb^B
F^F#
e------------------------------------
B------------------------------------
G------------------------------------
D------------------------------------
A---9--8--8--6--6--4--4--------------
E------------------------------------
Bb^B
e------------------------------------
B------------------------------------
G------------------------------------
D------------------------------------
A---9--8--8--6--6--------------------
E------------------------------------
F^F#
e------------------------------------
B------------------------------------
G--11-10-10--8--8--6--6--------------
D------------------------------------
A---9--8--8--6--6--4--4--------------
E------------------------------------
Bb^B
e------------------------------------
B------------------------------------
G--11-10-10--8--8--------------------
D------------------------------------
A---9--8--8--6--6--------------------
E------------------------------------
F^F#
e------------------------------------
B------------------------------------
G--11-10-10--8--8--6--6--------------
D------------------------------------
A---9--8--8--6--6--4--4--------------
E------------------------------------
Bb^B
e------------------------------------
B------------------------------------
G--11-10-10--8--8--------------------
D------------------------------------
A---9--8--8--6--6--------------------
E------------------------------------
F#^F -(notice this is switched!)
e------------------------------------
B------------------------------------
G--10-11--12--14--15-----------------
D------------------------------------
A---8--9--10--12--13-----------------
E------------------------------------
Bbm F#
hold my head
Ebm B
we'll trampoline
F# Bbm
finally through the roof
F# Ebm
on to somewhere near
B F#
and far in time
Bbm F#
velouria
Ebm B
her covering
F# Bbm
travelling career
F# Ebm
she can really move
B F#
oh velveteen!
CHORUS
F^F# Bb^B
my velouria, my velouria
F^F#
even i'll adore you
Bb^B
my velouria
F^F#
even i'll adore you
Bb^B
F#^F
Bbm F#
say to me
Ebm B
where have you been?
F# Bbm
finally through the roof
F# Ebm
and how does lemur skin
B F#
reflect the sea?
Bbm F# Ebm B
velouria, where have you been?
CHORUS
F^F# Bb^B
my velouria, my velouria
F^F#
even i'll adore you
Bb^B
my velouria
F^F#
even i'll adore you
Bb^
B
we will wade in the shine of the ever
B
we will wade in the shine of the ever
B
we will wade in the tides of the summer
D
every summer
D
every summer
F F
every
F^F#
my velouria
Bb^B
my velouria
F^F#
e------------------------------------
B------------------------------------
G--11-10-10--8--8--6--6--------------
D------------------------------------
A---9--8--8--6--6--4--4--------------
E------------------------------------
Bb^B
e------------------------------------
B------------------------------------
G--11-10-10--8--8--------------------
D------------------------------------
A---9--8--8--6--6--------------------
E------------------------------------
F^F#
e------------------------------------
B------------------------------------
G--11-10-10--8--8--6--6--------------
D------------------------------------
A---9--8--8--6--6--4--4--------------
E------------------------------------
Bb^B
e------------------------------------
B------------------------------------
G--11-10-10--8--8--------------------
D------------------------------------
A---9--8--8--6--6--------------------
E------------------------------------
F#^F
e------------------------------------
B------------------------------------
G--10-11--12--14--15-----------------
D------------------------------------
A---8--9--10--12--13-----------------
E------------------------------------
Bbm F#
forevergreen
Ebm B
i know she's here
F# Bbm
in california
F# Ebm
i can see the tears
B F#
of shastasheen
CHORUS
F^F# Bb^B
my velouria, my velouria
F^F#
even i'll adore you
Bb^B
my velouria
F^F#
even i'll adore you
Bb^B
my velouria
F^F#
even i'll adore you
Bb^B
my velouria
F^F#
Bb^B
F^F#
Bb^B
F^F#
Bb^B (sustain B until fade)




Ваше мнение



Капча