Okay... here's Undone - The sweater song by Weezer. I got it out of the book so it's pretty accurate.
In Eb tuning (1=eb 2=bb 3=gb 4=db 5=ab 6= Eb)

Intro:
eb--------------------------------------------------------------
bb--------------0-------------0-------------0-------------0--
gb----------3--------------3-------------5-------------3---- (Repeat
db------2----------------2------------4-------------2------- as
ab--------------------3------------5------------3------------ necessary)
Eb--3--------------------------------------------------------

Verse:
G C D C
eb---3-3-3-3----0-0-0-0----2-2-2-2--0-0-0--------
bb---0-0-0-0----1-1-1-1----3-3-3-3--1-1-1----- (Repeat as necessary)
gb---0-0-0-0----2-2-2-2----2-2-2-2--2-2-2-------
db---0-0-0-0----0-0-0-0----0-0-0-0--0-0-0--------
ab---2-2-2-2----3-3-3-3----0-0-0-0--3-3-3--------
Eb---3-3-3-3-------------------------------------

Chorus:
eb-------------------------------------------
bb-------------------------------------------
gb----5-5-5-5-6-6-6-6-8-8-8-8-6-6-6-6------------
db----6-6-6-6-6-6-6-6-8-8-8-8-6-6-6-6-------- (Repeat as necessary)
ab----6-6-6-6-4-4-4-4-6-6-6-6-4-4-4-4------------
Eb----4-4-4-4-4-4-4-4-6-6-6-6-4-4-4-4-----------

Solo: I don't have THAT much time on my hands.

Check out: Thwack.topcities.com to go to my band's website!




Ваше мнение



Капча