Date: Mon, 07 Oct 1996 21:29:52 -0400
From: Adam Queler
Subject: TAB: "Tired of Sex" by Weezer
Tired of Sex by Weezer off Pinkerton. by Adam Queler
Baseline
|---------------------------------------|
|---------------------------------------|
|---------------------------------------|
|---------------------------------------|
|--------4-4----46-4--------------------|
|---2-2-------------7-62----------------|
(Baseline)
i'm tired
so tired
i'm tired of having sex (so tired)
i'm spread
so thin
i don't know who i am (who i am)
F# B C# D# (play the roots, it's
actually the bass)
monday night i'm making jen
tuesday night i'm making lin
wednesday night i'm making catherine
E
so why can't i be making love come true?
whoa
F# C# C#/D#\C# A# A# (In beat to the baseline)
i'm beat
beat red
ashamed of what i said (what i said)
i'm sorry
do not go
i know i'm silly but i can't say no (say no)
(This time play the chords)
thursday night i'm making denise
friday night i'm making therese
Saturday night i'm making louise
E B A# G# F# (I dunno)
so why can't i be making love come true?
whatcha gonna do?
tonight i'm down on my knees
tonight i'm begging you please
tonight tonight so please
so why can't i be making love come true?
I know I didn't put in all of the chords, but if you listen to the song,
you'd have to be completely tone deaf not to be able to hear the
differnt patterns. However if there is any questions or corrections,
tell me at [email protected] Also if any one has any other
tab or
knows where to find tab of Pinkerton, email me.
--
Adam Queler
_____________________________________________________________________
QQQQQQ
Q Q
Q AA Q
Q A A Q
Adam Q AAAA Q Queler
Q A A Q
Q Q Q /------------------\
Q Q | [email protected] |
QQQQQQ Q \------------------/
Q
_____________________________________________________________________
From [email protected] Wed Oct 23 08:15:31 1996
Date: Sun, 16 Jan 1994 05:41:00 -0500
From: Mark
To: [email protected]
Subject: TAB: Tired of sex By Weezer
[The following text is in the "ISO-8859-1" character set]
[Your display is set for the "US-ASCII" character set]
[Some characters may be displayed incorrectly]
Transcribed By Mark Padgett
Bass Line: (Slide Down On The Start)
-------------------------------------------------
-------------------------------------------------
-------4--4--6--4--2-1-1--------------------
-2-2--------------------------------------------

Guitar Intro:
-6-1-2-1h------4-----6--h4--6--1-2-1h------4-----6--7h--p6--4--6---1-2-1h-
-----4--------
--------------2----------------------------------2------------------------
-------------------2------------
--------------------------------------------------------------------------
----------------------------------
--------------------------------------------------------------------------
----------------------------------
--------------------------------------------------------------------------
----------------------------------
--------------------------------------------------------------------------
----------------------------------
I'm Tired, So Tired Of Having Sex
So Tired
Guitar Chorus: F# C# D# B A# Strumming Same As The Bass Line!
Solo: I Dont Think So, I'm Not That Patient!




Ваше мнение



Капча