Artist: Weezer
Song: Teenage Victory Song
Album: Island in the Sun (Single)/Green Album B-Side)
Riff 1:
e|---9-10--9--7--9--7--5---|
B|---x--x--x--x--x--x--x---|
G|---6--7--6--4--6--4--2---|
D|-------------------------|
A|-------------------------|
E|-------------------------|
Riff 2:
e|------------------------------|
B|---9h10p9h10p9h10p9h10p9h10---|
G|------------------------------|
D|------------------------------|
A|------------------------------|
E|------------------------------|
Intro:
D E2 A G# F# D E2
e|--------------------------------------------------------|
B|--10-12-9-10-12-14--14--15-14-10-10-12-10---10-12--9----|
G|---x--x-x--x--x--x---x---x--x--x--x--x--x----x--x--x----|
D|---7--9-6--7--9-11--11--12-11--7--7--9--7----7--9--6----|
A|--------------------------------------------------------|
E|--------------------------------------------------------|
Verse 1:
A
I'm gonna bury you
A
I'm gonna bury you
E
I dont care what you do
E
As long as I approve
Chorus:
D
'Cause you dont know the way I feel
(riff 1)
C# F# E
Spinning here inside this wheel
D
I've been waiting for so long
(riff 1)
C# F# E
To sing my teenage victory song
D E2 F#2
Whoa Lord I'm comin' home
E2
(riff 2)
Verse 2:
I'm gonna play all night
I'm gonna beat you right
And mash you in the nads
And kick you outta sight
Chorus:
'Cause you dont know the way I feel
Spinning here inside this wheel
I've been waiting for so long
To sing my teenage victory song
Whoa Lord I'm comin' home
E2
Bridge:
(riff 2)
D E2 A F#
C'mon everybody sing along [sing along]
D E2
Lets make them feel dumb
A F#
'Cause they were wrong [they were wrong]
D E2 A G# F#
We'll dance and sing the night away [night away]
D E2
Say you'll stay
Solo:
A E
e|----------------------------------------------------|
B|----------------------------------------------------|
G|---/6-6-6-4-2--/6-6-6-4-2--/7-7-7-6-4--/7-7-7-6-4---|
D|----------------------------------------------------|
A|----------------------------------------------------|
E|----------------------------------------------------|
Chrous:
'Cause you dont know the way I feel
Spinning here inside this wheel
I've been waiting for so long
To sing my teenage victory song
Whoa Lord I'm comin' home
Bridge:
C'mon everybody sing along [sing along]
Lets make them feel dumb
'Cause they were wrong [they were wrong]
We'll dance and sing the night away [night away]
Say you'll stay
Verse 3:
I'm gonna play all night
I'm gonna beat you right
And mash you in the nads
And kick you outta sight
'Cause you dont know the way I feel




Ваше мнение



Капча