Transcribed by:Brad Chamberlain
Band:Weezer
Title:"Take Control"
Email:[email protected]

This is one of Weezer's awesome songs. Enjoy!

Standard tuning(eBGDAE)

Intro(play 2 times)

e|--------------------------------|
B|--------------------------------|
G|-2--2-0-2-0-2--0-2-0-2-0-2-2-5-2|
D|-2--2-0-2-0-2--0-2-0-2-0-2-2-5-2|
A|--------------------------------|
E|--------------------------------|

Verse(Play 3 times palm-muted)

e|--------------------------------|
B|--------------------------------|
G|--------------------------------|
D|-6--6-4-6-4-6--4-6-4-6-4-6-6-9-6|
A|-6--6-4-6-4-6--4-6-4-6-4-6-6-9-6|
E|--------------------------------|

Chorus**The chorus below is played differently when you play it the second
time. The second time,play the 3 more.
3
1

||
\/Stop
here on
the first
chorus

e|----------------------------------------------------------------------|
B|----------------------------------------------------------------------|
G|-------------------------------------------------------3-33-33-3-33-3-|
D|-66666666-88888888-66666666-88888888-66666666-88888888-3-33-33-3-33-3-|
A|-66666666-88888888-66666666-88888888-66666666-88888888-1-11-11-1-11-1-|
E|-44444444-66666666-44444444-66666666-44444444-66666666----------------|

Order:

Intro (2x)
Verse (3x)
Chorus (1x)
Intro (1x)
Verse (3x)
Chorus (1x)
Solo (don't have it)
Chorus (1x)
Intro (1x=outro)




Ваше мнение



Капча