tab by zetec
No one has done a tab for this yet so i decided to tab it. I hope its good this
is my second wezzer tab. They rule!
8. Simple Pages
C#5/G# - 4466xx
B5/F# - 2244xx
A5 - 577xxx
E5 - 022xxx
F#5 - 244xxx
D5/A - 5577xx
E5 (2) - 799xxx

C#5/G# B5/F#
E|-------------------------------------------------------------------
B|-------------------------------------------------------------------
G|--6-6-6-6-6-6-6-6-6-6-6-6-6-6-7-4-4-4-4-4-4-4-4-4-1-----2-----4----
D|-------------------------------------------------------------------
A|--4-4-4-4-4-4-4-4-4-4-4-4-4-4-5-2-2-2-2-2-2-2-2-2------------------
E|-------------------------------------------------------------------
A5
Gimme some love, gimme some love, gimme some
E5
I want you to know
F#5
Gimme some love, gimme some love
D5/A
Sugar thats the wrong wrong way to go
A5
Open your arms, open your arms honey
E5
And come right back home to me
F#5
Gimme some love, gimme some love
A5
Sugar thats the wrong wrong way to be
C#5/G# A5
Can't you see
D5 E5 (2) A5
We're to be this time
E5 C#5/G#
Simple pages on my mind
A5
Kick it on back, kick it on back
E5
Kick it on back to what you know
F#5
Gimme some love, gimme some love
D5/A
Sugar on the hard rock radio
A5
Where they play tunes, where they play tunes
E5
Where they play riffs with the hard rock beat
F#5
Gimme some love, gimme some love
D5/A
Sugar from the top with the old school meat
C#5/G# A5
Can't you see
D5 E5 (2) A5
We're to be this time
E5 C#5/G#
Simple pages on my mind
C#5/G# B/F#
Gimme something I can believe, oh baby
A5 E5
E|---------------------------------------------------
B|---------------------------------------------------
G|--14-14-14-14-14-14-14-14-13-13-13-11/13-----------
D|---------------------------------------------------
A|--12-12-12-12-12-12-12-12-11-11-11--9/11-----------
E|--------------------------12-12-12-11/12-----------
F#5 D5/A
E|---------------------------------------------------
B|---------------------------------------------------
G|--14-14-14-14-14-14-14-14-14-14-14-14-14-14-14-14--
D|---------------------------------------------------
A|--12-12-12-12-12-12-12-12-12-12-12-12-12-12-12-12--
E|--14-14-14-14-14-14-14-14-14-14-14-14-14-14-14-14--
A5 E5
E|---------------------------------------------------
B|---------------------------------------------------
G|--14-14-14-14-14-14-14-14-13-13-13-11-13-13-13-13--
D|---------------------------------------------------
A|--12-12-12-12-12-12-12-12-11-11-11-11-11-11-11-11--
E|--------------------------12-12-12-12-12-12-12-12--
F#5 D5/A
E|---------------------------------------------------
B|---------------------------------------------------
G|--14-14-14-14-14-14-14-14-14-14-14-14-14-14-14-14--
D|---------------------------------------------------
A|--12-12-12-12-12-12-12-12-12-12-12-12-12-12-12-12--
E|--14-14-14-14-14-14-14-14-14-14-14-14-14-14-14-14--

C#5/G# A5
Can't you see
D5 E5 (2) A5
We're to be this time
E5 C#5/G#
Simple pages on my mind
A5
Kick it on back, kick it on back
E5
Kick it on back to what you know
F#5
Gimme some love, gimme some love
D5/A
Sugar on the hard rock radio
A5
So gimme some love
E5
Gimme some love
F#5
Gimme some love
D5/A
Gimme some love
A5
Gimme some
E5
Can't you see
F#5
You're just me
D5/A A5
Turn these pages of my mind
E5 F#5 D5/A
Oh, oh
End on A5




Ваше мнение



Капча