t. See http://www.olga.net/faq/ for more information. #
Date: Sat, 10 Apr 1999 17:06:39 -0700
From: "St. Valentine"
Subject: w/weezer/say_it_aint_so.tab
Say It Ain't So -- 1/2 Step Down
Say it Ain't So
C#m G#(add #5) A E
---------4------------------------5----4-------------------------------
-4/5-----5--4--------0------------5----5-------------------------------
-4/6-6---6--5------5---5----------6----4-------------------------------
-4/6-6---6--6-6--6--------6/7-7---7----6-------------------------------
-4/4-4------6-6-----------6/7-7--------7-------------------------------
------------4-4-----------4/5-5----------------------------------------
Verse1
C#m G#
A E
C#m G#
A E
C#m G# A E
w/intro
Oh yeah. All right. Feels good inside
Verse2

C# C#* G# G# A A E5
C# C#* G# G#* A A E5 B --------------
G ---7b9-7b9----
C# C#* G# G#* A A E5 D --------------
C# C# G# G# A E
C# C# G# G# A A E5
C# C# G# G# A A E
Chorus
B
B/Bb
E G
-15b-15-12-11-9-11-9-9b11-9-7---15b-15-12-11-9-11-9-11\7--9b-9b--------
------------------------------9----------------------------------------
-----------------------------------------------------------------------
-----------------------------------------------------------------------
-----------------------------------------------------------------------
-----------------------------------------------------------------------
------12--16-14h16p14-12--------12--16-14-12-----------12-16-14-12-----
12/14---------------------12/14--------------14--12/14-------------14--
-----------------------------------------------------------------------
-----------------------------------------------------------------------
-----------------------------------------------------------------------
-----------------------------------------------------------------------
-16--16b17b16-14h16----------------------------------------------------
-----------------------------------------------------------------------
-----------------------------------------------------------------------
-----------------------------------------------------------------------
-----------------------------------------------------------------------
-----------------------------------------------------------------------




Ваше мнение



Капча