=rwa= tabs
==========
weezer
pink triangle (cuomo)
guitar transcription by Eric Zemcak (pronounced Zemchack)
VERSE:
Gb|-------------------------------------------------------|
Db|o-------------------------------4--7--4---------------o|
Ab|o--------2---------4--7--4---5---------------2--5--2--o|
Eb|---0--4-----4---5-------------------------3------------|
CHORUS:
Gb|-----------------------------------------------------------|
Db|o---------------------------------------------------------o|
Ab|o----------2-2-2---3-3-3-----------3-3-3-----------5-5-5--o|
Eb|---3-3-3-------------------3-3-3-----------3-3-3-----------|
Gb|-------------------------------------|
Db|---------------------------------5---|
Ab|------0--2--3--2--0------------------|
Eb|---3-----------------3---3-3-3-------|
SOLO/INTRUMENTAL:
I HAVE NO IDEA AND IT'S DRIVING ME CRAZY!!!




Ваше мнение



Капча