standard E tuning
--------------------------------------------------------------
---------------------------------------------------------------
--------------------------------7-7-7-7------------------------
--------------------------------5-5-5-5------------------------
7-7-7-7-7-7-7-7-4-4-4-4-4-4-4-4---------2-2-2-2-4-4-4-4-4-4-4-4-
5-5-5-5-5-5-5-5-2-2-2-2-2-2-2-2---------0-0-0-0-2-2-2-2-2-2-2-2-
-------------------------------- ---------------------------------
-------------------------------- ---------------------------------
-------------------------------- x2 ---------------------------------
7-7-7-7------------------------ 7-7-7-7-9-9-9-9-6-6-6-6----------
5-5-5-5-2-2-2-2-7-7-7-7-7-7-7-7- 5-5-5-5-7-7-7-7-4-4-4-4-4-4-4-4--
--------0-0-0-0-5-5-5-5-5-5-5-5- ------------------------2-2-2-2--
--------------------------------
--------------------------------
--------------------------------
7-7-7-7-7-7-7-7-----------------
5-5-5-5-5-5-5-5-2-2-2-2-2-2-2-2-
----------------0-0-0-0-0-0-0-0- bla bla bla
figure the rest out im tired of typing
solo thing- -
- -6---
-6- ---7-7/9/11-11-11\9-6-7-7-7
---7-7-7-7^ x2 then --7
--7 -
- -




Ваше мнение



Капча