WEEZER - O GIRLFRIEND


By: -c-h-r-i-s- ([email protected])


Standard Tuning




Intro:
e |----------------------------------------------------------------------|
B |-14-14-14--7--10--14-14--14-14-14--7--10--14--12---13--12---13--12----|
G |----------------------------------------------------------------------|
D |-11-11-11--4---7--11-11--11-11-11--4---7--11---9---10---9---10---9----|
A |----------------------------------------------------------------------|
E |----------------------------------------------------------------------|


Verse: (x4)
e |------------------------------------------|
B |------------------------------------------|
G |-----------7-7-7-7--4-4-4-4---------------|
D |--7-7-7-7--7-7-7-7--4-4-4-4--2-2-2-2------|
A |--7-7-7-7--5-5-5-5--2-2-2-2--2-2-2-2------|
E |--5-5-5-5--------------------0-0-0-0------|


Chorus:
e |------------------------------------------------------------------------|
B |------------------------------------------------------------------------|
G |----------6-6-6-6-----------6-6-6-6--7-7-7-7--4-4-4-4-------------------|
D |-4-4-4-4--6-6-6-6--4-4-4-4--6-6-6-6--7-7-7-7--4-4-4-4--5-5-5-5-5-5-5----|
A |-4-4-4-4--4-4-4-4--4-4-4-4--4-4-4-4--5-5-5-5--2-2-2-2--5-5-5-5-5-5-5----|
E |-2-2-2-2-----------2-2-2-2-----------------------------3-3-3-3-3-3-3----|

Verse 2:

GUITAR 1: (x4)
e |------------------------------------------|
B |------------------------------------------|
G |-----------7-7-7-7--4-4-4-4---------------|
D |--7-7-7-7--7-7-7-7--4-4-4-4--2-2-2-2------|
A |--7-7-7-7--5-5-5-5--2-2-2-2--2-2-2-2------|
E |--5-5-5-5--------------------0-0-0-0------|


GUITAR 2: (play this the third time through the verse)
e |-----------------------------------------------------------|
B |-14-14-14--12--14--15--14--12--10--9--9--10--12//14--14----|
G |-----------------------------------------------------------|
D |-11-11-11---9--11--12--11---9---7--6--6---7---9//11--11----|
A |-----------------------------------------------------------|
E |-----------------------------------------------------------|

e |---------------------------------------------------------------------|
B |-12--14--15--14--12--14--12--12--97//8//9--9--10--12//14--14------|
G |---------------------------------------------------------------------|
D |--9--11--12--11---9--11---9---9--64//5//6--6---7---9//11--11------|
A |---------------------------------------------------------------------|
E |---------------------------------------------------------------------|


Chorus 2: (same as chorus)


Breakdown:
e |------------------------------------------------------------------------------|
B |------------------------------------------------------------------------------|
G |------------------------------------------------------------------------------|
D |---7-7-7-7-7-7-7-7-7-7-7-7-7-7-7-7---5-5-5-5-5-5-5-5-5-5-5-5-5-5--------------|
A |---7-7-7-7-7-7-7-7-7-7-7-7-7-7-7-7---5-5-5-5-5-5-5-5-5-5-5-5-5-5--------------|
E |---5-5-5-5-5-5-5-5-5-5-5-5-5-5-5-5---3-3-3-3-3-3-3-3-3-3-3-3-3-3--------------|


Solo: (x2)

GUITAR 1: (plays verse chords)

GUITAR 2:
e |-----------------------------------------------------------|
B |-14-14-14--12--14--15--14--12--10--9--9--10--12//14--14----|
G |-----------------------------------------------------------|
D |-11-11-11---9--11--12--11---9---7--6--6---7---9//11--11----|
A |-----------------------------------------------------------|
E |-----------------------------------------------------------|

e |---------------------------------------------------------------------|
B |-12--14--15--14--12--14--12--12--97//8//9--9--10--12//14--14------|
G |---------------------------------------------------------------------|
D |--9--11--12--11---9--11---9---9--64//5//6--6---7---9//11--11------|
A |---------------------------------------------------------------------|
E |---------------------------------------------------------------------|


Chorus 3: (same as chorus)


Verse 3:

GUITAR 1: (x4)
e |------------------------------------------|
B |------------------------------------------|
G |-----------7-7-7-7--4-4-4-4---------------|
D |--7-7-7-7--7-7-7-7--4-4-4-4--2-2-2-2------|
A |--7-7-7-7--5-5-5-5--2-2-2-2--2-2-2-2------|
E |--5-5-5-5--------------------0-0-0-0------|


GUITAR 2:
e |-----------------------------------------------------------|
B |-14-14-14--12--14--15--14--12--10--9--9--10--12//14--14----|
G |-----------------------------------------------------------|
D |-11-11-11---9--11--12--11---9---7--6--6---7---9//11--11----|
A |-----------------------------------------------------------|
E |-----------------------------------------------------------|

e |---------------------------------------------------------------------|
B |-12--14--15--14--12--14--12--12--97//8//9--9--10--12//14--14------|
G |---------------------------------------------------------------------|
D |--9--11--12--11---9--11---9---9--64//5//6--6---7---9//11--11------|
A |---------------------------------------------------------------------|
E |---------------------------------------------------------------------|

e |---------------------------------------------------------------------|
B |-12--14--15--14--12--14--12--12--97//8//9--9--10--12//14--14------|
G |---------------------------------------------------------------------|
D |--9--11--12--11---9--11---9---9--64//5//6--6---7---9//11--11------|
A |---------------------------------------------------------------------|
E |---------------------------------------------------------------------|

e |---------------------------------------------------------------------|
B |-12--14--15--14--12--14--12--12--97//8//9--9--10--12//14--14------|
G |---------------------------------------------------------------------|
D |--9--11--12--11---9--11---9---9--64//5//6--6---7---9//11--11------|
A |---------------------------------------------------------------------|
E |---------------------------------------------------------------------|


End the song on this chord:
|-----------------|
|-----------------|
|-----------------|
|-------7---------|
|-------7---------|
|-------5---------|


Any comments? questions? etc. Email to [email protected]




Ваше мнение



Капча