Weezer
No one else [acoustic]
By: Per Karlsson [[email protected]]
Tuned down 1/2 step
INTRO: Guitar 1 (or 2) (or both)
eb |---------------------------------|
Bb |---------------------------------|
Gb |-9-9-9-9-9-9-6-6-6-4-4-4-6-4-2-4-|
Db |-9-9-9-9-9-9-6-6-6-4-4-4-6-4-2-4-|
Ab |-7-7-7-6-6-6-4-4-4-2-2-2-4-2-0-2-|
Eb |---------------------------------|
VERSE: Guitar 1&2
eb |-0----0(5)----2----2-2-|
Bb |-0----2(5)----2----4-4-|
Gb |-1----2(6)----2----4-2-|
Db |-2----2(7)----4----4-4-|
Ab |-2----0(7)----4----2-2-|
Eb |-0----x(5)----2----x-x-|
PRE-CHORUS: Guitar 1&2
eb |-------------------------------------------------|
Bb |-------------------------------------------------|
Gb |-------------------------------------------------|
Db |-6-6-6-6-6-6-6-6-7-7-7-7-7-7-7-7-6-6-6-6-6-6-6-6-|
Ab |-6-6-6-6-6-6-6-6-7-7-7-7-7-7-7-7-6-6-6-6-6-6-6-6-|
Eb |-4-4-4-4-4-4-4-4-5-5-5-5-5-5-5-5-4-4-4-4-4-4-4-4-|
eb |-----------------|
Bb |-------------4-4-|
Gb |-------------4-4-|
Db |-7-7-7-6-6-6-4-4-|
Ab |-7-7-7-6-6-6-2-2-|
Eb |-5-5-5-4-4-4-----|
CHORUS: Guitar 1&2
eb |-0----2----4----5-|
Bb |-0----4----5----5-|
Gb |-1----4----6----6-|
Db |-2----4----6----7-|
Ab |-2----2----4----7-|
Eb |-0----x----4----5-|
BRIDGE: Guitar 1&2
eb |-------------------------------------------------|
Bb |-------------------------------------------------|
Gb |-------------------------------------------------|
Db |-6-6-6-6-6-6-6-6-7-7-7-7-7-7-7-7-6-6-6-6-6-6-6-6-|
Ab |-6-6-6-6-6-6-6-6-7-7-7-7-7-7-7-7-6-6-6-6-6-6-6-6-|
Eb |-4-4-4-4-4-4-4-4-5-5-5-5-5-5-5-5-4-4-4-4-4-4-4-4-|
eb |-------------|
Bb |-----------4-|
Gb |-----------4-|
Db |-7-7--6-6--4-|
Ab |-7-7--6-6--2-|
Eb |-5-5--4-4----|
SOLO: Guitar 1 (or 2) plays solo
Guitar 2 (or 1) plays verse x2
eb |-------------------------------------------------------------|
Bb |-------------------------------------------------------------|
Gb |-8-8-8---------------------------------------------------4---|
Db |-------9-9-9-9-9--6-6-6----------------2-4-4/6-4-2-4-4/6---6-|
Ab |------------------------7-7-7-7-7--4/7-----------------------|
Eb |-------------------------------------------------------------|
eb |---------------------------------------------------------------|
Bb |------------------------------------------------12--9h10p9-7h9-|
Gb |-4-4-4----------6-6-6----------9-9-9-------9-------------------|
Db |-------6-6-6-6--------7-7-7-7--------11-11---11----------------|
Ab |---------------------------------------------------------------|
Eb |---------------------------------------------------------------|




Ваше мнение



Капча