I think this is right.
Sounds it to me.
Intro:
-----------|------------------------------------------------------------------
-----------|------------------------------------------------------------------
-3-x-3-3-3-|-3-x-3-3----------------------------------------------------------
-3-x-3-3-1-|-3-x-3-3----------------------------------------------------------
-1-x-1-1-1-|-1-x-1-1----------------------------------------------------------
-----------|------------------------------------------------------------------
First Bridge [Comes in with "Ohhh, ohh ohh ohh..."]:
-----------|-----------|-----------|------------------------------------------
-----------|-----------|-----------|------------------------------------------
-3-x-3-3-3-|-3-x-3-3-3-|-3-x-3-3-3-|-3-x-3-3-3--------------------------------
-3-x-3-3-1-|-3-x-3-3-1-|-3-x-3-3-1-|-3-x-3-3-1--------------------------------
-1-x-1-1-1-|-1-x-1-1-1-|-1-x-1-1-1-|-1-x-1-1-1--------------------------------
-----------|-----------|-----------|------------------------------------------
First Verse ["Dead on my head..."] :
-----------|-----------|-----------|------------------------------------------
-----------|-----------|-----------|------------------------------------------
-3-x-3-3-3-|-3-x-3-3-3-|---------3-|-3-x-3-3-3--------------------------------
-3-x-3-3-1-|-3-x-3-3-1-|-3-x-3-3-1-|-3-x-3-3-1--------------------------------
-1-x-1-1-1-|-1-x-1-1-1-|-3-x-3-3-1-|-1-x-1-1-1--------------------------------
-----------|-----------|-1-x-1-1---|------------------------------------------
Chorus - Gtr. 1 ["For the times..."]
--------------------------|---------------------------------------------------
--------------------------|---------------------------------------------------
-3---3-3--5-5-5-5-5-5-5-5-|-3-3-3-3--3-3-3-3--5-5-5-5-5-5-5-5-----------------
-1---3-3--3-3-3-3-3-3-3-3-|-1-1-1-1--3-3-3-3--3-3-3-3-3-3-3-3-----------------
-1---1-1--3-3-3-3-3-3-3-3-|-1-1-1-1--1-1-1-1--3-3-3-3-3-3-3-3-----------------
--------------------------|---------------------------------------------------
Chorus - Gtr. 2 [underneath Guitar 1 - listen to song]:
--5h6p5p3----------------|----------------------|
----------6-3------------|-1h3-1h3-1h3-1--------| --------------5-3-5------|---------------3-3----|
-------------------------|----------------------|
-------------------------|----------------------|
-------------------------|----------------------|
Second Bridge ["ohhh...ohhh..."]:
-----------|-----------|-----------|------------------------------------------
-----------|-----------|-----------|------------------------------------------
-3-x-3-3-3-|-3-x-3-3-3-|-3-x-3-3-3-|-3-x-3-3-3--------------------------------
-3-x-3-3-1-|-3-x-3-3-1-|-3-x-3-3-1-|-3-x-3-3-1--------------------------------
-1-x-1-1-1-|-1-x-1-1-1-|-1-x-1-1-1-|-1-x-1-1-1--------------------------------
-----------|-----------|-----------|------------------------------------------
Second Verse [Cheese smells so good..."]:
-----------|-----------|-----------|------------------------------------------
-----------|-----------|-----------|------------------------------------------
-3-x-3-3-3-|-3-x-3-3-3-|---------3-|-3-x-3-3-3--------------------------------
-3-x-3-3-1-|-3-x-3-3-1-|-3-x-3-3-1-|-3-x-3-3-1--------------------------------
-1-x-1-1-1-|-1-x-1-1-1-|-3-x-3-3-1-|-1-x-1-1-1--------------------------------
-----------|-----------|-1-x-1-1---|------------------------------------------
Chorus - Gtr. 1 ["For the times..."]
--------------------------|---------------------------------------------------
--------------------------|---------------------------------------------------
-3---3-3--5-5-5-5-5-5-5-5-|-3-3-3-3--3-3-3-3--5-5-5-5-5-5-5-5-----------------
-1---3-3--3-3-3-3-3-3-3-3-|-1-1-1-1--3-3-3-3--3-3-3-3-3-3-3-3-----------------
-1---1-1--3-3-3-3-3-3-3-3-|-1-1-1-1--1-1-1-1--3-3-3-3-3-3-3-3-----------------
--------------------------|---------------------------------------------------
Chorus - Gtr. 2 [underneath Guitar 1 - listen to song]:
--5h6p5p3----------------|----------------------|
----------6-3------------|-1h3-1h3-1h3-1--------| --------------5-3-5------|---------------3-3----|
-------------------------|----------------------|
-------------------------|----------------------|
-------------------------|----------------------|
Third Bridge - Gtr. 1 [ohhhh...this dope nose]
------------------------------------------------------------------------------
------------------------------------------------------------------------------
-6-6-6-6-6-6-6-6--------------------------------------------------------------
-4-4-4-4-4-4-4-4--------------------------------------------------------------
-4-4-4-4-4-4-4-4--------------------------------------------------------------
------------------------------------------------------------------------------
Third Bridge Gtr. 1 [underneath guitar 1 - listen to song]
-16p13p11-16p13p11-16p13-13p11-
-------------------------------
-------------------------------
-------------------------------
-------------------------------
-------------------------------
Third Bridge Continued ["ohhh...ohhh..."]:
-----------|-----------|-----------|------------------------------------------
-----------|-----------|-----------|------------------------------------------
-3-x-3-3-3-|-3-x-3-3-3-|-3-x-3-3-3-|-3-x-3-3-3--------------------------------
-3-x-3-3-1-|-3-x-3-3-1-|-3-x-3-3-1-|-3-x-3-3-1--------------------------------
-1-x-1-1-1-|-1-x-1-1-1-|-1-x-1-1-1-|-1-x-1-1-1--------------------------------
-----------|-----------|-----------|------------------------------------------
Solo:
----------------------------------------------------------------------------|-
----------------------------------------------------------------------------|-
-/15p13----13---------------------------------------------------------------|-
--------15----15-13-15p13--13-11-13-11----13-11----11-----------------------|-
---------------------------------------13-------13----13p11h13--------11h13-|-
----------------------------------------------------------------11h13-------|-
--------------------------------------------------------------16-15---------|-
-----------------------------15-13-13-12-12---/16-15-15-13-13-16-15---------|-
----------13-----------------15-13-13-12-12---/16-15-15-13-13---------------|-
-11h13/15----15-13-13-12-12-------------------------------------------------|-
----------------------------------------------------------------------------|-
----------------------------------------------------------------------------|-
-15h16p15p13-15h16p15p13-15h16p15p13-15h16p15p13h15h16--18--------------------
-------------------------------------------------------------15-15------------
-------------------------------------------------------------15-15------------
------------------------------------------------------------------------------
------------------------------------------------------------------------------
------------------------------------------------------------------------------
Chorus - Gtr. 1 ["For the times..."]
--------------------------|---------------------------------------------------
--------------------------|---------------------------------------------------
-3---3-3--5-5-5-5-5-5-5-5-|-3-3-3-3--3-3-3-3--5-5-5-5-5-5-5-5-----------------
-1---3-3--3-3-3-3-3-3-3-3-|-1-1-1-1--3-3-3-3--3-3-3-3-3-3-3-3-----------------
-1---1-1--3-3-3-3-3-3-3-3-|-1-1-1-1--1-1-1-1--3-3-3-3-3-3-3-3-----------------
--------------------------|---------------------------------------------------
Chorus - Gtr. 2 [underneath Guitar 1 - listen to song]:
--5h6p5p3----------------|----------------------|
----------6-3------------|-1h3-1h3-1h3-1--------| --------------5-3-5------|---------------3-3----|
-------------------------|----------------------|
-------------------------|----------------------|
-------------------------|----------------------|
Fourth Bridge - Gtr. 1 [ohhhh...this dope nose]
------------------------------------------------------------------------------
------------------------------------------------------------------------------
-6-6-6-6-6-6-6-6--------------------------------------------------------------
-4-4-4-4-4-4-4-4--------------------------------------------------------------
-4-4-4-4-4-4-4-4--------------------------------------------------------------
------------------------------------------------------------------------------
Fourth Bridge Gtr. 1 [underneath guitar 1 - listen to song]
-16p13p11-16p13p11-16p13-13p11-
-------------------------------
-------------------------------
-------------------------------
-------------------------------
-------------------------------
Outro
------------------------
--4-----4-----4--4------
--3--3--3--3--3--3--3\--
--1--3--1--3--1--1--3\--
-----1-----1--------1\--
------------------------
Lyrics:
Dead on my head
Wasting time on my own
Sleep rescue me
Take me back to my home
For the times that you wanna go and
Bust rhymes real slow
I'll appear, slap you on the face and
Enjoy the show
Cheese smells so good
On a burnt piece of lamb
Fact of the year
Who could beat up your man?
For the times that you wanna go and
Bust rhymes real slow
I'll appear, slap you on the face and
Enjoy the show
Oh, this dope nose
For the times that you wanna go and
Bust rhymes real slow
I'll appear, slap you on the face and
Enjoy the show
Oh, this dope nose




Ваше мнение



Капча