Artist: Weezer
Song: Living Without You
Album: Maladroit (UK Import)
Intro riff:
e|---------------------------------------------------------------------------|
B|-----9--------7-----------5--------5---------------------------------------|
G|--------9--------7-----------5--------5------------------------------------|
D|-----------9-----------7------------------5--------------------------------|
A|--7-----------------5-----------3-------3----------------------------------|
E|---------------------------------------------------------------------------|
Verse 1:
Em C#
I wanna go (go)
A
To see your house (go)
B
See how you're livin'
Em A B Em
Living without you
Em C#
And if you care,(Oh)
A
I'm wanting you (Oh)
B
From such a distance.
Em A B Em
Living without you.
The little riff Brian (i think?) plays on the second C# is this:
e|---------------------------------------------------------------------------|
B|-------5-5-7-7-5-5-4-4-5---------------------------------------------------|
G|---6-6---------------------------------------------------------------------|
D|---------------------------------------------------------------------------|
A|---------------------------------------------------------------------------|
E|---------------------------------------------------------------------------|
Chorus
Em G#
And if you want to try
A B
To speak to me again
G/C G#/C#
I'll be your bestest friend
A Em G#
Oh (oh) oh (oh) oh
C#
And I want you
A Em G#
Oh (oh) oh (oh)
Verse 2:
The things you wrote
To cut me off
When I was trying.
Living without you.
To get with you
Would be your friend.
Make me feel so bad.
Living without you.
Chorus:
And if you want to try
To speak to me again
I'll be your bestest friend.
Whoa, ohhh, ohhh.
And I want you.
Ohhh, ohhh, oohh.
Bridge
A highE
Yeah, sweet girl I need you
A B
Oh, I think it could be so good!
The riff that goes over the bridge:
A highE A B
e|---------------------------------------------------------------------------|
B|---3--3--3--3--3----9--9--9--9--9----3--3--3--3--3----7--7--7--7--7--------|
G|----4--4--4--4--4----9--9--9--9--9----4--4--4--4--4----8--8--8--8--8-------|
D|--5--5--5--5--5--5-9--9--9--9--9--9-5--5--5--5--5--5-9--9--9--9--9--9------|
A|---------------------------------------------------------------------------|
E|---------------------------------------------------------------------------|
Solo:
e|---------------------------------------------------------------------------|
B|------------------12-9~----------12-9-7-7-5-5-4--4h5p4p2p0-----------------|
G|--/9~--9--9h11-11--------9h11-11----------------------------2b3r0h2p0------|
D|----------------------------------------------------------------------2----|
A|---------------------------------------------------------------------------|
E|---------------------------------------------------------------------------|
e|----------------------------7-4--------------9-----------------------------|
B|-----5----7---7---5h7--5h7--------10---9-12-----9--7----14b15r12h12p12-----|
G|-----------------------------------------------------9-----------------14--|
D|--2----2-------------------------------------------------------------------|
A|---------------------------------------------------------------------------|
E|---------------------------------------------------------------------------|
Chorus:
And if you want to try
To speak to me again
I'll be your bestest friend.
Whoa, ohhh, ohhh.
And I want you.
Ohhh, ohhh, ohhh.
Bridge:
Yeah, sweet girl
I need you.
Oooh, I think it could be so good




Ваше мнение



Капча