Tabber: Connor G-core


e------------------------------------|
B------------------------------------|
G------------------------------------|
D---8--8-8---8--8-8---8--8-8---8--8-8|
A-66-66-6--66-66-6--66-66-6--66-66-6-|
E------------------------------------|
Bass comes in...whoo hooo

e----------------------------------------|
B----------------------------------------|
G----------------------------------------|
D----8--8-8----5--5-5----8--8-8----5--5-5|x2
A--66-66-6---66-66-6---66-66-6---66-66-6-|
E----------------------------------------|

e-------------------------------------------|
B-------------------------------------------|
G-------------------------------------------|
D--15-15-1513-17-12-15--15-15-15-13-13-12-8|
A-------------------------------------------|
E-------------------------------------------|

e----------------------------------------|
B----------------------------------------|
G----------------------------------------|
D----8--8-8----5--5-5----8--8-8----5--5-5|x2
A--66-66-6---66-66-6---66-66-6---66-66-6-|
E----------------------------------------|

e----------------------|--------------------|
B----------------------|--------------------|
G----------------------|--------------------|
D--15-15-1513-17-12-15|33333333-5555-7777-8|
A----------------------|11111111-3333-5555-6|
E----------------------|--------------------|

e---------------------------------------------------|
B---------------------------------------------------|
G---------------------------------------------------|
D-888888888-8-7-555555555-5-7-88888888888-1010101010|
A-666666666-6-5-333333333-3-5-66666666666-8888888888|
E---------------------------------------------------|

i dont feel like writing the rest, good luck




Ваше мнение



Капча