Title: Knock-down Drag-out
Artist: Weezer
Major Props To: John Ellis
[email protected]
Intro
Guitar 1
e|--------------------------------------------------------------|
B|--------------5--5--------------------------------------------|
G|-5-4-5--------------------------------------------------------|
D|--------------------------------------------------------------|
A|--------------------------------------------------------------|
E|--------------------------------------------------------------|
Guitar 2
Ab5 F5 Bb5 G5 C5
e|--------------------------------------------------------------|
B|------------------------------------6-5-----------------------|
G|---------------3---3-3----------5-----------------------------|
D|-6-6-6-3---3-3-3---3-3-5--5-5-5-5-----------------------------|
A|-6-6-6-3---3-3-1---1-1-5--5-5-5-3-----------------------------|
E|-4-4-4-1---1-1---------3--3-3-3-------------------------------|
Verse
Both (x2)
C5 F5 G5 C5
e|--------------------------------------------------------------|
B|--------------------------------------------------------------|
G|-5--------------5---------------------------------------------|
D|-5----3----5----5---------------------------------------------|
A|-3----3----5----3---------------------------------------------|
E|-3----1----3----3---------------------------------------------|
Chorus
Both
E5 F5 G5 G#5 A5 D5 G5
e|--------------------------------------------------------------|
B|--------------------------------------------------------------|
G|--------------------------7-----------------------------------|
D|-2----3----5----6----7----7----5------------------------------|
A|-2----3----5----6----7----5----5------------------------------|
E|-0----1----3----4----5----5----3------------------------------|
Bridge
Guitar 1
e|--------------------------------------------------------------|
B|--------------------------------------------------------------|
G|-1-1-1-2---2-2-3---3-3-4--4-4-4-5-----------------------------|
D|--------------------------------------------------------------|
A|--------------------------------------------------------------|
E|--------------------------------------------------------------|
Guitar 2
Ab5 F5 Bb5 G5 C5
e|--------------------------------------------------------------|
B|------------------------------------6-5-----------------------|
G|---------------3---3-3----------5-----------------------------|
D|-6-6-6-3---3-3-3---3-3-5--5-5-5-5-----------------------------|
A|-6-6-6-3---3-3-1---1-1-5--5-5-5-3-----------------------------|
E|-4-4-4-1---1-1---------3--3-3-3-------------------------------|
Solo
Guitar 1 (x2)
e|--------------------------------------------------------------|
B|-5-5-5--1--1--1--1-0-0---0-1----------------------------------|
G|-----------------------2--------------------------------------|
D|--------------------------------------------------------------|
A|--------------------------------------------------------------|
E|--------------------------------------------------------------|
Verse
Guitar 2
C5 F5 G5 C5
e|--------------------------------------------------------------|
B|--------------------------------------------------------------|
G|-5--------------5---------------------------------------------|
D|-5----3----5----5---------------------------------------------|
A|-3----3----5----3---------------------------------------------|
E|-3----1----3----3---------------------------------------------|
Guitar 1 (x3)
e|--------------------------------------------------------------|
B|-5-5-5--1--1--1--1-0-0---0-1----------------------------------|
G|-----------------------2--------------------------------------|
D|--------------------------------------------------------------|
A|--------------------------------------------------------------|
E|--------------------------------------------------------------|
Overdub
e|--------------------------------------------------------------|
B|-----------5--5--5-3-3-1-3-5----------------------------------|
G|--------------------------------------------------------------|
D|--------------------------------------------------------------|
A|--------------------------------------------------------------|
E|--------------------------------------------------------------|
Guitar 2 (x3)
C5 F5 G5 C5
e|--------------------------------------------------------------|
B|--------------------------------------------------------------|
G|-5--------------5---------------------------------------------|
D|-5----3----5----5---------------------------------------------|
A|-3----3----5----3---------------------------------------------|
E|-3----1----3----3---------------------------------------------|
Props To You! The End.




Ваше мнение



Капча