sorry if this aint perfect at least sum1 has put this tab on here as i hav been waiting ages 4 it
Intro and First Verse
e|-----------------------|
b|-----------------------|
g|---4-4-4444------------|
d|---4-4-4444--2-2-2222--|x4
a|---2-2-2222--2-2-2222--|
e|-------------0-0-0000--|
e|-----------------------|
b|-----------------------|
g|---6-6-6666------------|
d|---6-6-6666--4-4-4444--|x2
a|---4-4-4444--4-4-4444--|
e|-------------2-2-2222--|
Chorus
e|--------------------------------------|
b|--------------------------------------|
g|---4-44--------------6-66-------------|
d|---4-44--6-66--2-22--6-66--444444444--|x2
a|---2-22--6-66--2-22--4-44--444444444--|
e|---------4-44--0-00--------222222222--|
Second Verse
e|-----------------------|
b|-----------------------|
g|---4-4-4444------------|
d|---4-4-4444--2-2-2222--|x2
a|---2-2-2222--2-2-2222--|
e|-------------0-0-0000--|
e|-----------------------|
b|-----------------------|
g|---6-6-6666------------|
d|---6-6-6666--4-4-4444--|x2
a|---4-4-4444--4-4-4444--|
e|-------------2-2-2222--|
Repeat Chorus then:
post chorus to save.. you from.. yourself
e|-----------------------| |-----------------------------|
b|-----------------------| |-----------------------------|
g|---99999999------------| |-------------6---------------|
d|---99999999--99999999--|x3 |---2---------6----------4----|
a|---77777777--99999999--| |---2---------4----------4----|
e|-------------77777777--| |---0--------------------2----|
Solo
e|-----------------------------77-5-7---7---7-----|
b|---9-7-9-7---7-9-7-9-7-7---7--------7---6---4-6-|
g|-----------9-------------9----------------------|
d|------------------------------------------------|
a|------------------------------------------------|
e|------------------------------------------------|
then
e|-----------------------|
b|-----------------------|
g|---6-6-6666------------|
d|---6-6-6666--4-4-4444--|x2
a|---4-4-4444--4-4-4444--|
e|-------------2-2-2222--|
repeat Chorus + post chorus
then repeat this until end:
e|-----------------------|
b|-----------------------|
g|---4-4-4444------------|
d|---4-4-4444--2-2-2222--|x8
a|---2-2-2222--2-2-2222--|
e|-------------0-0-0000--|
end on this and hold
e|-----|
b|-----|
g|--4--|
d|--4--|
a|--2--|
e|-----|




Ваше мнение



Капча