WEEZER - KEEP FISHIN
This is the first guitar, it's the whole song in full, just play this and
all notes and you got the song for the first guitar
|-----------------|-------------|-----------------|--------------|
|-----------------|-------------|-----------------|--------------|
|-4--4--4----4----|-5--5--5--5--|-4--4--4----4----|-5--5--5--5---|
|-5--5--5----5----|-5--5--5--5--|-5--5--5----5----|-5--5--5--5---|
|-5--5--5----5----|-3--3--3--3--|-5--5--5----5----|-3--3--3--3---|
|-3--3--3--0-3--0-|-3--3--3--3--|-3--3--3--0-3--0-|-3--3--3--3---|
|-------------|-------------|-------------|--------------|
|-------------|-------------|-------------|--------------|
|-4--4--4--4--|-5--5--5--5--|-4--4--4--4--|-5--5--5--5---|
|-5--5--5--5--|-5--5--5--5--|-5--5--5--5--|-5--5--5--5---|
|-5--5--5--5--|-3--3--3--3--|-5--5--5--5--|-3--3--3--3---|
|-3--3--3--3--|-3--3--3--3--|-3--3--3--3--|-3--3--3--3---|
|-------------|-------------|-------------|--------------|
|-------------|-------------|-------------|--------------|
|-4--4--4--4--|-5--5--5--5--|-4--4--4--4--|-5--5--5--5---|
|-5--5--5--5--|-5--5--5--5--|-5--5--5--5--|-5--5--5--5---|
|-5--5--5--5--|-3--3--3--3--|-5--5--5--5--|-3--3--3--3---|
|-3--3--3--3--|-3--3--3--3--|-3--3--3--3--|-3--3--3--3---|
|-------------|-------------|-------------|--------------|
|-------------|-3--3--3--3--|-------------|-3--3--3--3---|
|-2--2--2--2--|-2--2--2--2--|-2--2--2--2--|-2--2--2--2---|
|-2--2--2--2--|-0--0--0--0--|-2--2--2--2--|-0--0--0--0---|
|-0--0--0--0--|-0--0--0--0--|-0--0--0--0--|-0--0--0--0---|
|-------------|-------------|-------------|--------------|
|---------------|---------------|-2--2-2-2-2-3--|-2--2-2-2-2-2-2--|
|---------------|---------------|-3--3-3-3-3-3--|-3--3-3-3-3-3-3--|
|---------------|-5--5-5-2--2-2-|-2--2-2-2-2-2--|-2--2-2-2-2-2-2--|
|-5--5-5-2--2-2-|-5--5-5-2--2-2-|-0--0-0-0-0-0--|-0--0-0-0-0-0-0--|
|-5--5-5-2--2-2-|-3--3-3-0--0-0-|---------------|-----------------|
|-3--3-3-0--0-0-|---------------|---------------|-----------------|
|---------------|---------------|-2--2-2-2-2-3--|-2--2-2-2-2-2-2--|
|---------------|---------------|-3--3-3-3-3-3--|-3--3-3-3-3-3-3--|
|---------------|-5--5-5-2--2-2-|-2--2-2-2-2-2--|-2--2-2-2-2-2-2--|
|-5--5-5-2--2-2-|-5--5-5-2--2-2-|-0--0-0-0-0-0--|-0--0-0-0-0-0-0--|
|-5--5-5-2--2-2-|-3--3-3-0--0-0-|---------------|-----------------|
|-3--3-3-0--0-0-|---------------|---------------|-----------------|
|-------------|-------------|-------------|--------------|
|-------------|-------------|-------------|--------------|
|-4--4--4--4--|-5--5--5--5--|-4--4--4--4--|-5--5--5--5---|
|-5--5--5--5--|-5--5--5--5--|-5--5--5--5--|-5--5--5--5---|
|-5--5--5--5--|-3--3--3--3--|-5--5--5--5--|-3--3--3--3---|
|-3--3--3--3--|-3--3--3--3--|-3--3--3--3--|-3--3--3--3---|
|-------------|-------------|-------------|--------------|
|-------------|-3--3--3--3--|-------------|-3--3--3--3---|
|-2--2--2--2--|-2--2--2--2--|-2--2--2--2--|-2--2--2--2---|
|-2--2--2--2--|-0--0--0--0--|-2--2--2--2--|-0--0--0--0---|
|-0--0--0--0--|-0--0--0--0--|-0--0--0--0--|-0--0--0--0---|
|-------------|-------------|-------------|--------------|
|---------------|---------------|-2--2-2-2-2-3--|-2--2-2-2-2-2-2--|
|---------------|---------------|-3--3-3-3-3-3--|-3--3-3-3-3-3-3--|
|---------------|-5--5-5-2--2-2-|-2--2-2-2-2-2--|-2--2-2-2-2-2-2--|
|-5--5-5-2--2-2-|-5--5-5-2--2-2-|-0--0-0-0-0-0--|-0--0-0-0-0-0-0--|
|-5--5-5-2--2-2-|-3--3-3-0--0-0-|---------------|-----------------|
|-3--3-3-0--0-0-|---------------|---------------|-----------------|
|---------------|---------------|-2--2-2-2-2-3--|-2--2-2-2-2-2-2--|
|---------------|---------------|-3--3-3-3-3-3--|-3--3-3-3-3-3-3--|
|---------------|-5--5-5-2--2-2-|-2--2-2-2-2-2--|-2--2-2-2-2-2-2--|
|-5--5-5-2--2-2-|-5--5-5-2--2-2-|-0--0-0-0-0-0--|-0--0-0-0-0-0-0--|
|-5--5-5-2--2-2-|-3--3-3-0--0-0-|---------------|-----------------|
|-3--3-3-0--0-0-|---------------|---------------|-----------------|
|-----------------|-----------------|-----------------|------------------|
|-----------------|-----------------|-----------------|------------------|
|-5-5-5-5-5-5-5-5-|-----------------|-5-5-5-5-5-5-5-5-|------------------|
|-5-5-5-5-5-5-5-5-|-5-5-5-5-5-5-5-5-|-5-5-5-5-5-5-5-5-|-5-5-5-5-5-5-5-5--|
|-3-3-3-3-3-3-3-3-|-5-5-5-5-5-5-5-5-|-3-3-3-3-3-3-3-3-|-5-5-5-5-5-5-5-5--|
|-3-3-3-3-3-3-3-3-|-3-3-3-3-3-3-3-3-|-3-3-3-3-3-3-3-3-|-3-3-3-3-3-3-3-3--|
|-----------------|-----------------|-----------------|-2-2-2-2-2-2-3-3--|
|-----------------|-----------------|-----------------|-3-3-3-3-3-3-3-3--|
|-5-5-5-5-5-5-5-5-|-----------------|-5-5-5-5-2-2-2-2-|-2-2-2-2-2-2-2-2--|
|-5-5-5-5-5-5-5-5-|-5-5-5-5-2-2-2-2-|-5-5-5-5-2-2-2-2-|-0-0-0-0-0-0-0-0--|
|-3-3-3-3-3-3-3-3-|-5-5-5-5-2-2-2-2-|-3-3-3-3-0-0-0-0-|------------------|
|-3-3-3-3-3-3-3-3-|-3-3-3-3-0-0-0-0-|-----------------|------------------|
|-2-2-2-2-2-2-2-2-|-------------|-------------|--------------|
|-3-3-3-3-3-3-3-3-|-------------|-------------|--------------|
|-2-2-2-2-2-2-2-2-|-4--4--4--4--|-5--5--5--5--|-4--4--4--4---|
|-0-0-0-0-0-0-0-0-|-5--5--5--5--|-5--5--5--5--|-5--5--5--5---|
|-----------------|-5--5--5--5--|-3--3--3--3--|-5--5--5--5---|
|-----------------|-3--3--3--3--|-3--3--3--3--|-3--3--3--3---|
|-------------|-------------|-------------|--------------|
|-------------|-------------|-3--3--3--3--|--------------|
|-5--5--5--5--|-2--2--2--2--|-2--2--2--2--|-2--2--2--2---|
|-5--5--5--5--|-2--2--2--2--|-0--0--0--0--|-2--2--2--2---|
|-3--3--3--3--|-0--0--0--0--|-0--0--0--0--|-0--0--0--0---|
|-3--3--3--3--|-------------|-------------|--------------|
|-------------|---------------|---------------|-2--2-2-2-2-3--|
|-3--3--3--3--|---------------|---------------|-3--3-3-3-3-3--|
|-2--2--2--2--|---------------|-5--5-5-2--2-2-|-2--2-2-2-2-2--|
|-0--0--0--0--|-5--5-5-2--2-2-|-5--5-5-2--2-2-|-0--0-0-0-0-0--|
|-0--0--0--0--|-5--5-5-2--2-2-|-3--3-3-0--0-0-|---------------|
|-------------|-3--3-3-0--0-0-|---------------|---------------|
|-2--2-2-2-2-2-2-|---------------|---------------|-2--2-2-2-2-3--|
|-3--3-3-3-3-3-3-|---------------|---------------|-3--3-3-3-3-3--|
|-2--2-2-2-2-2-2-|---------------|-5--5-5-2--2-2-|-2--2-2-2-2-2--|
|-0--0-0-0-0-0-0-|-5--5-5-2--2-2-|-5--5-5-2--2-2-|-0--0-0-0-0-0--|
|----------------|-5--5-5-2--2-2-|-3--3-3-0--0-0-|---------------|
|----------------|-3--3-3-0--0-0-|---------------|---------------|
|-2--2-2-2-2-2-2-|-----------------|-----------------|------------------|
|-3--3-3-3-3-3-3-|-----------------|-----------------|------------------|
|-2--2-2-2-2-2-2-|-5-5-5-5-5-5-5-5-|-----------------|-5-5-5-5-5-5-5-5--|
|-0--0-0-0-0-0-0-|-5-5-5-5-5-5-5-5-|-5-5-5-5-5-5-5-5-|-5-5-5-5-5-5-5-5--|
|----------------|-3-3-3-3-3-3-3-3-|-5-5-5-5-5-5-5-5-|-3-3-3-3-3-3-3-3--|
|----------------|-3-3-3-3-3-3-3-3-|-3-3-3-3-3-3-3-3-|-3-3-3-3-3-3-3-3--|
|-----------------|-----------------|-----------------|------------------|
|-----------------|-----------------|-----------------|------------------|
|-----------------|-5-5-5-5-5-5-5-5-|-----------------|-5-5-5-5-2-2-2-2--|
|-5-5-5-5-5-5-5-5-|-5-5-5-5-5-5-5-5-|-5-5-5-5-2-2-2-2-|-5-5-5-5-2-2-2-2--|
|-5-5-5-5-5-5-5-5-|-3-3-3-3-3-3-3-3-|-5-5-5-5-2-2-2-2-|-3-3-3-3-0-0-0-0--|
|-3-3-3-3-3-3-3-3-|-3-3-3-3-3-3-3-3-|-3-3-3-3-0-0-0-0-|------------------|
|-2-2-2-2-2-2-3-3-|-2-2-2-2-2-2-2-2-|-------------|--------------|
|-3-3-3-3-3-3-3-3-|-3-3-3-3-3-3-3-3-|-------------|--------------|
|-2-2-2-2-2-2-2-2-|-2-2-2-2-2-2-2-2-|-4--4--4--4--|-5--5--5--5---|
|-0-0-0-0-0-0-0-0-|-0-0-0-0-0-0-0-0-|-5--5--5--5--|-5--5--5--5---|
|-----------------|-----------------|-5--5--5--5--|-3--3--3--3---|
|-----------------|-----------------|-3--3--3--3--|-3--3--3--3---|
|-------------|-------------|-------------|--------------|
|-------------|-------------|-------------|--------------|
|-4--4--4--4--|-5--5--5--5--|-4--4--4--4--|-5--5--5--5---|
|-5--5--5--5--|-5--5--5--5--|-5--5--5--5--|-5--5--5--5---|
|-5--5--5--5--|-3--3--3--3--|-5--5--5--5--|-3--3--3--3---|
|-3--3--3--3--|-3--3--3--3--|-3--3--3--3--|-3--3--3--3---|
|-------------|-------------|----------|------*|
|-------------|-------------|----------|------*|
|-4--4--4--4--|-5--5--5--5--|-4--------|-(4)--*|
|-5--5--5--5--|-5--5--5--5--|-5--------|-(5)--*|
|-5--5--5--5--|-3--3--3--3--|-5--------|-(5)--*|
|-3--3--3--3--|-3--3--3--3--|-3--------|-(3)--*|Play this on top of the first guitar when it fits
|--------------------------------------|
|--------------------------------------|
|--------------0-----0-------0--2------|
|------0-0-0-2----------0-0------------|
|--------------------------------------|
|--------------------------------------|
SOLO|----------------|----------------------|-----------------------|
|----------------|----------------------|-----------------------|
|--------------0-|-(0)----(0)-----0-2-4-|-(4)----(4)------------|
|------0-0-0-2---|------------0-0-------|--------------------5--|
|----------------|----------------------|------------5-5-5-7----|
|----------------|----------------------|-----------------------|
|----------------------|----------*|
|----------------------|----------*|
|----------------------|----------*|
|-(5)----(5)-----5-7-9-|-(9)------*|
|------------5-5-------|----------*|
|----------------------|----------*|
This is the vocals arranged for guitar... believe me it's fun to play
|---------|---------|---------|----------------|
|---------|---------|---------|----------------|
|---------|---------|---------|-------------0--|
|---------|---------|---------|-------0-0-2----|
|---------|---------|---------|----------------|
|---------|---------|---------|----------------|
|------------------|------------------|-------------------|
|------------------|------------------|-------------------|
|-(0)----------0-4-|-(4)--------------|----------------4--|
|----------0-0-----|----------------5-|-(5)----------5----|
|------------------|----------5-5-7---|----------5-5------|
|------------------|------------------|-------------------|
|--------------|--------------|--------------|--------------|
|--------------|--------5--3--|-3-1----------|--------5--3--|
|-(4)----4--2--|-2-0----------|-----2--4--2--|-2-0----------|
|--------------|-----2--------|--------------|-----2--------|
|--------------|--------------|--------------|--------------|
|--------------|--------------|--------------|--------------|
|---------------|-------------|-------------|--------|
|-3-1-----------|-------------|-------------|--------|
|-----2-2-4--2--|-2---0-0-----|-0-----0-----|--------|
|---------------|-----------2-|-----2-----2-|-4------|
|---------------|-------------|-------------|--------|
|---------------|-------------|-------------|--------|
|-------------|-------------|-------------|--------|
|-------------|-------------|-------------|--------|
|-----2-4--2--|-2---0-0-----|-0-----0-----|--------|
|-------------|-----------2-|-----2-----2-|-4------|
|-------------|-------------|-------------|--------|
|-------------|-------------|-------------|--------|
|---------------|------------------|-------------------|
|---------------|------------------|-------------------|
|---------------|----------------4-|-(4)---------------|
|-------------5-|-(5)----------5---|----------------5--|
|-------5-5-7---|----------5-5-----|----------5-5-7----|
|---------------|------------------|-------------------|
|------------------|--------------|--------------|--------------|
|------------------|--------------|--------5--3--|-3-1----------|
|----------------4-|-(4)----4--2--|-2-0----------|-----2--4--2--|
|-(5)----------5---|--------------|-----2--------|--------------|
|----------5-5-----|--------------|--------------|--------------|
|------------------|--------------|--------------|--------------|
|--------------|---------------|-------------|--------------|
|--------5--3--|-3-1-----------|-------------|--------------|
|-2-0----------|-----2-2-4--2--|-2---0-0-----|-0-----0------|
|-----2--------|---------------|-----------2-|-----2-----2--|
|--------------|---------------|-------------|--------------|
|--------------|---------------|-------------|--------------|
|----------|-------------|-------------|--------------|
|----------|-------------|-------------|--------------|
|----------|-----2-4--2--|-2---0-0-----|-0-----0------|
|-4--------|-------------|-----------2-|-----2-----2--|
|----------|-------------|-------------|--------------|
|----------|-------------|-------------|--------------|
|----------|---------|--------------|-------------|
|----------|---------|---5--3-1-0---|----------5--|
|----------|---------|------------2-|-2---0-0-----|
|-4--------|---------|--------------|-------------|
|----------|---------|--------------|-------------|
|----------|---------|--------------|-------------|
|---------------|-------------|---------------|--------------|
|-3--5--3-1-0---|----------5--|-3--5--3-1-0---|--------------|
|-------------2-|-2---4-4-----|-------------2-|-2---0-0------|
|---------------|-------------|---------------|-----------2--|
|---------------|-------------|---------------|--------------|
|---------------|-------------|---------------|--------------|
|-------------|----------|---------|---|
|-------------|----------|---------|---|
|-0-----0-----|----------|---------|---|
|-----2-----2-|-4--------|---------|---|
|-------------|----------|---------|---|
|-------------|----------|---------|---|
|---------|---------|-----------|--------------|
|---------|---------|-----------|--------5--3--|
|---------|---------|-----4--2--|-2-0----------|
|---------|---------|-----------|-----2--------|
|---------|---------|-----------|--------------|
|---------|---------|-----------|--------------|
|--------------|--------------|---------------|--------------|
|-3-1----------|--------5--3--|-3-1-----------|--------------|
|-----2--4--2--|-2-0----------|-----2-2-4--2--|-2---0-0------|
|--------------|-----2--------|---------------|-----------2--|
|--------------|--------------|---------------|--------------|
|--------------|--------------|---------------|--------------|
|-------------|----------|-------------|--------------|
|-------------|----------|-------------|--------------|
|-0-----0-----|----------|-----2-4--2--|-2---0-0------|
|-----2-----2-|-4--------|-------------|-----------2--|
|-------------|----------|-------------|--------------|
|-------------|----------|-------------|--------------|
|-------------|----------|---------|---------------|
|-------------|----------|---------|---5--3-1-0----|
|-0-----0-----|----------|---------|------------2--|
|-----2-----2-|-4--------|---------|---------------|
|-------------|----------|---------|---------------|
|-------------|----------|---------|---------------|
|-------------|---------------|-------------|----------------|
|----------5--|-3--5--3-1-0---|----------5--|-3--5--3-1-0----|
|-2---0-0-----|-------------2-|-2---4-4-----|-------------2--|
|-------------|---------------|-------------|----------------|
|-------------|---------------|-------------|----------------|
|-------------|---------------|-------------|----------------|
|-------------|-------------|----------|----------------|
|-------------|-------------|----------|----------------|
|-2---0-0-----|-0-----0-----|----------|----------------|
|-----------2-|-----2-----2-|-4--------|-------------5--|
|-------------|-------------|----------|-------5-5-7----|
|-------------|-------------|----------|----------------|
|------------------|------------------|-------------------|
|------------------|------------------|-------------------|
|----------------4-|-(4)--------------|----------------4--|
|-(5)----------5---|----------------5-|-(5)----------5----|
|----------5-5-----|----------5-5-7---|----------5-5------|
|------------------|------------------|-------------------|
|------------------|------------------|----------------------|
|------------------|------------------|----------------------|
|-(4)------4-4-5-4-|-(4)------4-4-5-4-|-(4)---4-(4)-4-4-5-4--|
|------------------|------------------|----------------------|
|------------------|------------------|----------------------|
|------------------|------------------|----------------------|
|------------------|----------------*|
|------------------|----------------*|
|-(4)------4-4-5-4-|-(4)---4-(4)----*|
|------------------|----------------*|
|------------------|----------------*|
|------------------|----------------*|
=============
Weezer-Keep Fishin'
Maladroit
There are enough versions of this floating around, so I decided to throw in
mine. Normal tuning and whatnot, although I guess you could tune everything
down a half-step and move all the notes up one fret...but whatever.
Chords (all fifths):
B E C# F# G# e
- - - - - -
- - - - - -
- 9 6 - - -
9 9 6 4 6 2
9 7 4 4 6 2
7 - - 2 4 0
Riff (play every time you see this: *)
e-|-------------------|
b-|-------------------|
g-|---9p8-----11-8----|
d-|--------9----------|
a-|-------------------|
e-|-------------------|
Lyrics (from the liner notes)
B E
You'll never be a better kind
B E
If you don't leave the world behind
C# F#
Waste my days (waste my days)
C# F#
Drown aways (drown aways)
B G# F# e F#
It's just the thought of you in love with someone else
B G# F# e F#
It breaks my heart to see you hanging from your shelf
B E
You'll never do the things you want
B E
If you don't move and get a job
C# F#
Waste my days (waste my days)
C# F#
Drown aways (drown aways)
B G# F# e F#
It's just the thought of you in love with someone else
B G# F# e F#
It breaks my heart to see you hanging from your shelf
E B
Oh girl when I'm in love with you
E B
Keep fishin' if you feel it's true
E B G# B G# F#
There's nothing much that we can do to save you from yourself
Solo (over verse chords):
e-|-(12b13--13b12-11)-----------------------/12---12------------------------|
b-|-/13b14--14r13-11--/13--11------11-10h11----13----13-11-13-11----11------|
g-|----------------------------13--------------------------------13----13-11|
d-|-------------------------------------------------------------------------|
a-|-------------------------------------------------------------------------|
e-|-------------------------------------------------------------------------|
C# F#
Waste my days (waste my days)
C# F#
Drown aways (drown aways)
B G# F# e F#
It's just the thought of you in love with someone else
B G# F# e F#
It breaks my heart to see you hanging from your shelf
E B
Oh girl when I'm in love with you
E B
Keep fishin' if you feel it's true
E B G# B G# F#
There's nothing much that we can do to save you from yourself
B E
You'll never be a better kind
B E
You'll never be a better kind
B E
(Waste my days) Whoa whoa...
B E
(Waste my days) Whoa whoa...
B E
(Waste my days) Whoa whoa...
B E
(Waste my days) Whoa whoa...
B
(Waste my days)
And then...
a-|---------------|
e-|--7brbrbrb-----|
really fast-it sounds better w/o the whammy bar.
Well, that's it. Thanks to Mike Nason, who already posted a tab. Sorry if I
borrowed stuff from yours. If you see something wrong with this tab then
write your own. Ha. Or just complain to [email protected] This is my
first one so be nice.
(:o(= (I am the =w=alrus)




Ваше мнение



Капча