Weezer - My Name is Jonas
Tuned 1/2 Step Down

INTRO
C Em7 Am Em7
---------------------------0-------------------------------0---
---1-------1-------0---------0-----1-------1-------0---------0-
-----0-------0-------0---------------2-------2-------0---------
---------2---------------0---------------2---------------0-----
-3---------------2---------------0---------------2-------------
---------------------------------------------------------------
Play as 3 note groups ex: play 3,1,0 then 2,1,0
Use pick and finger

C5 G5 A5 F5
------- ------- ------- -------
------- ------- ------- -------
-----5- ------- ------- -------
-----5- ----5-- ----7-- ----3--
--3---- ----5-- ----7-- ----3--
------- --3---- --5---- --1----

C5 G5 A5 f5
My name is Jonas
F5 C5
I'm carrying the wheel
C5 G5 A5 f5
Thanks for all you've shown us
F C5 G5 A5 F5
But this is how we feel
C5 G5
Come sit next to me
A5 F5
Pour yourself some tea

Just like grandma made
When we couldn't find sleep
Things were better then
Once but never again
We've all left the den
Let me tell you 'bout it

C5 A5 G5
The choo-choo train left right on time
C5 A5 G5
A ticket cost only your mind
C5 A5 G5
The driver said "hey man we go all the way"
C5 A5 G5
Of course we were willing to pay

My name is Wepeel
I gotta box full of your toys
They're fresh out of batteries
But they're still makin' noise

Tell me what to do
Now the tank is dry
Now this wheel is flat
and you know what else?

Guess what I received
in the mail today
Words of deep concern
from my little brother

The building's not going as it's planned
The foreman has injured his hand
The dozer will not clear a path
The driver swears he learned his math

The worker's are going home
C5

Solo:(STILL WORKING ON IT)

E F5 G5 E F5 G5 then intro




Ваше мнение



Капча